Acordes de Guitarra » S »Soda Stereo » Té para 3 (Tab)

Té para 3
Soda Stereo

  • Letra y Acordes
    Rodriguez [j_pezina@hotmail.com soda0544] que me fue de ayuda).
    Con el video del concierto pude sacr esta version que es 100% correcta.
    
    Suerte a todos los que visiten esta transcrpción, y muchas garcias a
    Julian de Jesus Pezina Rodriguez, LaCuerda.net y claro, a
    SODA STEREO
    
    
    
       D/F#          Em9           G            A7        Este es el ritmo
                                                           de la canción
    E B G D A E  E B G D A E  E B G D A E  E B G D A E     --------------
    -----------  -----------  -----------  -----------     --------------
    | | | | | |  | | | | | |  | | | | | |  | | | | | |   ||       ^   ^  ||
    | | | | | |  | | | | | |  | | | | | |  | | | | | |   ||  |  | | | |  ||
    2 0 0 2 3 2  0 2 2 0 3 2  3 2 0 0 3 3  0 0 2 2 2 3   ||  |  | | | |  ||
    | | | | | |  | | | | | |  | | | | | |  | | | | | |   ||  |  | | | |  ||
    | | | | | |  | | | | | |  | | | | | |  | | | | | |   ||  v  v   v    ||
    -----------  -----------  -----------  -----------     --------------
    E B G D A E  E B G D A E  E B G D A E  E B G D A E     --------------
    
  • Letra y Acordes
    D/F#: 200232
    Em7/9: 022032
    G: 320033
    A7: x02223
    Dsus4: xx0233
    D13: xx0235
    
    
        D/F#            Em7/9
      Las tazas sobre el mantel,
          D/F#       Em7/9
      la lluvia derramada...
          G
      un poco de miel,
          A7
      un poco de miel...
          Em7/9
      no basta.
    
           D/F#           Em7/9
    
  • Letra y Acordes
       D     Em/D    G      A*
    
    E: 2     2       3      3
    B: 3     3       3      2
    G: 2     0       0      2
    D: 0     2       0      2
    A: 0     2       2      0
    E: 2     0       3      0
    
    
    
    
    
    D              Em/D
    Las tazas sobre el mantel
         D          Em/D
    la lluvia derramada
      G
    un poco de miel
        A*           Em/D
    
  • Tablatura
          D/F#                               Em-Em7
    E/---X---------------------------0-----------------------------------------
    B/---3---------------------------0---3---0---------------------------------
    G/---2-------------------------- 0-----------------------------------------
    D/---0--------0~2~0-----------2--------------------------------------------
    A/---0------------------0-------2------------------------------------------
    E/---2---------------------------0-----------------------------------------
    Esta parte se repite 2 veces y luego....
    ~ = pull off
    /  = slide
    
                G                                                A                            Em-Em7
    E/-------3--------3------3-/-5-----5-----3------------------------0--------
    B/-------3----3------3----------5-----3----------2~3~2~0-----0---3---0-----
    G/-------0------------------------------------------------------------0----
    D/-------0------------------------------------------------------------2----
    A/-------2-------------------------------------0----------------------2----
    E/-------3-------------------------------------------------------------0---
    
    Este es el fin de la introducción, y ahora empieza la cancion con las mismas 
    
  • Tablatura
    E/---------19---15----------------19--15----------------------------
    B/----15------------17b-------15----------17b---------br17p15--17---
    G/------------------------------------------------------------------
    D/------------------------------------------------------------------
    A/------------------------------------------------------------------
    E/------------------------------------------------------------------
    
    E/---------19---15----------------19--15---------------------------------------
    B/----15------------17b-------15----------17b---------br17p15--17--------------
    G/------------------------------------------------------------------br14p12----
    D/--------------------------------------------------------------------------14-
    A/-----------------------------------------------------------------------------
    E/-----------------------------------------------------------------------------
    
    E/---------19---15----------------19--15---------------------------
    B/----15------------17b-------15----------17b---------br17--15--17-
    G/-----------------------------------------------------------------
    D/-----------------------------------------------------------------
    A/-----------------------------------------------------------------
    E/----------------------------------------------------------------- X2
    
  • Tablatura
    E/-------19---15----------------19--15-------------------------------------
    B/--15-------------19(bu)----15-----------19(bu)17(bu)_17-15-17(bu)--------
    G/-------------------------------------------------------------------------
    D/-------------------------------------------------------------------------
    A/-------------------------------------------------------------------------
    E/-------------------------------------------------------------------------
    
    E/-------19---15----------------19--15-----------------------------------
    B/--15-------------19(BU)----15-----------19(bu)---------------------
    G/----------------------------------------------16_15_14------------------
    D/-------------------------------------------------------17-14-------------
    A/------------------------------------------------------------------------
    E/------------------------------------------------------------------------
    esta parte de aca arriba se puede hacer así tambien:
    E/-------19---15----------------19--15-------------------------------------
    B/--15-------------19(BU)----15--------19(bu)-17(bu)_17-15-17(bu)-------
    G/----------------------------------------------------------------14(bu)-14-12-
    D/------------------------------------------------------------------------------14
    A/-------------------------------------------------------------------------
    E/-------------------------------------------------------------------------
    
  • Armónica
    TÉ PARA TES
    
    
    Este tema quiero dedicárselo a todas aquellas personas fanáticas
    de Soda Stereo y muy especialmente a mi primo Fabricio
    y mi a hermano del alma, Raúl Fathala.
    ¡¡¡SODA POR SIEMPRE STEREO!!!
    
    
    Armónica en Do
    
    
    Cómo tocar:
    5: soplar la nota
    (6): aspirar la nota
    
    
    
    
     5   6 6    5  6   (6) 5
    Las tasas sobre el mantel
    
    5   (7)(6)   6 (4) 6 5
    la lluvia   derramada
    
     5  6 6  (6)  6    (6) (8)(8)  8  (8) (6) (8) 7
    un poco  de  miel, un   poco  de miel no  basta.
    
    
    
     5   5 6 6   5   6  (6) 5
    El  eclipse no fue parcial
    
    5  5 (7)  (6)  6  (4) 6  5
    y cegó   nuestras miradas
    
     5  6   6  (6)6 5   (8) (8)  (8)  8(8) 7  (6) (8) 7 (6)
    te ví que llorabas, te  ví  que llorabas por  él....
    
     5  5 6   5 (4)
    Té para tres...
    
    
    
    (Continúa igual)
    
    
    Un sorbo de distracción
    buscando descifrarlos
    No hay nada mejor, no hay nada mejor que casa.
  • +
    ¡Colabora con nosotros!
    Envíanos tu versión de esta canción
  • Tutorial
    HD
    Explicado-Como tocar Té para tres/Cementerio Club MTV Unplugged de Soda Stereo para bajo tutor
    12:37
  • Tutorial
    COMO TOCAR Te Para Tres en Guitarra ACORDES+SOLO (Cover-Tutorial)
    4:17

Letra de Té para 3
Con el video del concierto pude sacr esta version que es 100% correcta.
Suerte a todos los que visiten esta transcrpción, y muchas garcias a
Julian de Jesus Pezina Rodriguez, LaCuerda.net y claro, a
SODA STEREO
de la canción
| | | | | | | | | | | | | | | | | | | | | | | | || ^ ^ ||
| | | | | | | | | | | | | | | | | | | | | | | | || | | | | | ||
2 0 0 2 3 2 0 2 2 0 3 2 3 2 0 0 3 3 0 0 2 2 2 3 || | | | | | ||
| | | | | | | | | | | | | | | | | | | | | | | | || | | | | | ||
| | | | | | | | | | | | | | | | | | | | | | | | || v v v ||
Las tazas sobre el mantel
la lluvia derramada
un poco de miel
un poco de miel no basta.
El eclipse no fue parcial
y cegó nuestras miradas
te ví que llorabas
te ví que llorabas por él
té para tres
un sorbo de distracción
buscando descifrarnos
no hay nada mejor
no hay nada mejor que casa
un té para tres



© LaCuerda.net · aviso legal · privacidad · contacto