Acordes de Guitarra » S »Soda Stereo » Signos (Tab)

Signos
Soda Stereo

Letras, Acordes y Tabs para Guitarra, Bajo y Ukulele

  • INTRO [ Am Em G F  Am Em Gm F ]
    
    
    Am         Em  G                           
    No hay un modo                               
               F           Am                    
    no hay un punto exacto                       
            Em  Gm                               
    te doy todo                                  
               F         Am Em G F                
    y siempre guardo algo                         
    
    
    Am         Em  G                             
    Si estas oculta                              
             F           Am                      
    como sabre quien eres                        
                  Em  Gm
    me amas a obscuras                           
               F              Am
    
  • INTRO [ Am Em G F  Am Em A# F ]
    
    Am         Em  G
    No hay un modo
               F           Am
    no hay un punto exacto
            Em  A#
    te doy todo
               F         Am Em G F
    y siempre guardo algo
    
    Am         Em  G
    Si estas oculta
             F           Am
    como sabré quien eres
                  Em  A#
    me amas a obscuras
               F              Am
    duermes envuelta en redes
    
    
  • Intro: LAm MIm SOL6 FA7  LAm MIm SOLm REm x2
    LAm            MIm
       No hay un modo
    SOL6          FA7 
        no hay un  punto exacto
    LA       MIm
      te doy todo
    SOLm          REm
        y siempre guardo algo
    
    LA RE LA RE DO
    
    Si estas oculta
    como sabre quie eres
    me amas a oscuras
    duernes envuelta en redes
    
    LAm     RE
        Signos
    LAm                RE DO
    
  •   Am         Em             G
    1-----------I-------------I-----0----I-----0---
    2------5----I------0------I---3---3--I---1---1-
    3----5---5--I----0---0----I--4-4-4-4-I--2-2-2-2
    4-7-7-7-7-7-I-2-2-2-2-2-2-I-5--------I-3-------
    5-----------I-------------I----------I---------
    6-----------I-------------I----------I---------
    
    (SE REPITE EN TODOS LOS VERSOS)
    
    cOROS: Am, D; Am7, D, C; Am, D; Am7, D, C
    (SUENA MEJOR SI HACES LOS ACORDES CON CEJILLA)
    
    PARTE PREVIA AL ULTIMO CORO:
    (es un C#m, solo varia la 1er cuerda)
    
    1--------------------------------------
    2-----9--------9---------9--------9----
    3------9--------9---------9---------9--
    4---11--11---11---11---11--11---11---11
    
  • e|-----------------------------------------8-7-5-------------------------|
    B|----------------------------------8-7-5--------8-7-5-------------------|
    G|------------5-7-5-----------5-7-5--------------------7-5---------------|
    D|--7-7-7-7-7-------7-7-7-7-7-------------------------------7-5----------|
    A|-----------------------------------------------------------------------|
    E|-----------------------------------------------------------------------|
    
    e|-----------------------------------------8-7-10-8-12-10-14-12-15-------|
    B|-----------------------------------8-7-5-------------------------------|
    G|-------------5-7-5-----------5-7-5-------------------------------------|
    D|--7-7-7-7-7--------7-7-7-7-7-------------------------------------------|
    A|-----------------------------------------------------------------------|
    E|-----------------------------------------------------------------------|
    
    e|----------------------------------------7-5-8-7-5----------------------|
    B|----------------------------------8-7-5-----------8-7-5----------------|
    G|------------5-7-5-----------5-7-5-----------------------7-5------------|
    D|--7-7-7-7-7-------7-7-7-7-7--------------------------------------------|
    A|-----------------------------------------------------------------------|
    E|-----------------------------------------------------------------------|
    
  • C ÚLTIMO CONCIERTO.
    
       Am  Gm7in/9  Gadd9  Gmaj7  FAdd9  Fmaj7  Aadd9
    E  0     5        5      0       3      0     7
    B  1     5        3      3       1      1     5
    G  2     4        4      4       2      2     6
    D  2     5        5      5       3      3     7
    A  0     0        0      0       0      0     0
    E  0     0        0      0       0      0     0
    
    ARREGLO INTRO, se toca una sola vez la 4ta cuerda en el
    Segundo espacio, en el aire se sube al tercero.
     Se repite dos
    Veces.
    E 0 0
    B 0 0
    G 0 0
    D 2 3
    A 0 0
    E 0 0
    
  • INTRO:
    G|-------------------------------------------------|
    D|-------------------------------------------------|
    A|------3-----------------------1------------------|
    E|-5-5---5---3-5-5-3-0---0-3-3---3---3-1-1--1-1--3-| X1
    
    
    G|-------------------------------------------------|
    D|--------------------------------3--3-------------|
    A|------3-----------------------1------------------|
    E|-5-5---5---3-5-5-3-0---0-3-3---------1-1--1-1--3-| X1
    
    ESTROFA 1 = INTRO
    No hay un modo
    no hay un punto exacto
    te doy todo
    y siempre guardo algo
    
    INTERMEDIO:
    
    G|---------------------------------|
    D|---------------------------------|
    A|---------------------------------|
    E|5-------0-------3--------1-------| X1
    
    ESTROFA 2 = INTRO
    Si estas oculta
    como sabre quien eres
    me amas a oscuras
    duermes envuelta en redes
    
    CORO:
    G|-------------------------------------|
    D|-------------------------------------|
    A|--------5--------------5---3---------| X2
    E|5--3--5--------5--3--5---------------|
    
    G|---------------------------
  • Key Druming
    
                                 tom2(derecho)         cencerro
                          hihat  ^     ride    crash    ^      apertura hihat
                         |-x-----o-----¤--------©-------▲--------Ω|
    tom 1 (izquierdo)»»» |-------o--------------------------------|
    Redoblante       »»» |-------o--------------------------------|
    Tom 3 (Chancha)  »»» |-------o--------------------------------|
                         |-o--------x-----------------------------|
                         Bombo    hihatfoot
    
    -----------------------------------------------------
    
    
    Esperamos 2 compaces y comezamos a tocar
    
    la siguiente base:
    
       |©-x-x-x-|x-x-x-x-|x-x-x-x-|x-x-x-x-|
    4  |--------|--------|--------|--------|
    /  |----o---|----o---|----o---|----o---|
    4  |--------|--------|--------|--------|
       |o-------|o-------|o-------|o-------|
    
    
       |x-x-x-x-|x-x-x-x-|x-x-x-x-|x-x-x-x-|
    4  |--------|--------|--------|--------|
    /  |----o---|----o---|----o---|----o---|
    4  |--------|-------
  • +
    ¡Colabora con nosotros!
    Envíanos tu versión de esta canción
  • Tutorial
    Como tocar
    Signos - Soda Stereo
    Guitarra HD
    5:56
  • Tutorial
    HD
    Como tocar Signos (Soda Stereo último concierto)
    19:17
  • Tutorial
    HD
    Como tocar Signos (Soda Stereo)
    30:18
  • Tutorial
    HD
    Signos - SODA STEREO MVV (tutorial)
    5:35

Letra de Signos
No hay un modo
no hay un punto exacto
te doy todo
y siempre guardo algo
Si estas oculta
como sabre quien eres
me amas a obscuras
duermes envuelta en redes
Signos, mi parte insegura
bajo una luna hostil
signos, oh... oh
Mar de fondo
no caere en la trampa
llamame pronto
acertijos bajo el agua
Si algo cedes
calmare tu histeria
con los dientes
rasgare tus medias
Signos, mi parte insegura
bajo una luna hostil
signos, oh... oh
signos, uniendo fisuras
figuras sin definir
signos, oh... oh...
Signos, mi parte insegura
bajo una luna hostil
signos, oh... oh
signos, uniendo fisuras
figuras sin definir
signos, oh...




[Signos chords][Signos cifra]
© LaCuerda.net · aviso legal · privacidad · es · en · pt · contacto