Tablatura para Bajo de Soda Stereo: Juego de Seducción
Conexión · Inscripción
Letras y Acordes
Pantalla Completa
Imprimir
Versión Texto
Añadir Favorito
Otras Versiones

Mostrar Diagramas
Desfile Automático
Formato del Texto


Juego de Seducción(BAJ)

Soda Stereo

calidad:
soda0306
AUTOR: Gustavo Cerati
ALBUM: Nada Personal (1985)
Enviado por alejandro
Soy nuevo en esto de sacar temas de oido y transcribirlo.....
algunas cosas pueden tener errores,
por favor avísenme a mi facebook https://www.facebook.com/alejandroxromero


- Juego de Seducción - de la Gira "Me veras Volver" del
 año 2007 cuando soda se volvió a juntar.


INTRO:
G|----------------------|
D|----------------------| 2x
A|--2-------------------|
E|------2----5----0-----|

ESTROFA:
G|---4------------------------4----------------------------------|
D|-------4----7----2--------------4-----7--------7-----6---------|
A|--2------------------------2------------------5-----4----------|
E|------2----5----0--------------2-----5-------------------------|



CORO:
G|-----------------------------------------|
D|-----------------------------------------|
A|---2-2-----------------------------------| 4x
E|--------0000-00----5-5-----3333-33-------|

ESTROFA:
G|---4------------------------4----------------------------------|
D|-------4----7----2--------------4-----7--------7-----6---------|
A|--2------------------------2------------------5-----4----------|
E|------2----5----0--------------2-----5-------------------------|

CORO:
G|-----------------------------------------|
D|-----------------------------------------|
A|---2-2-----------------------------------| 4x
E|--------0000-00----5-5-----3333-33-------|

estrofa, coro...

G|---------------------------------|
D|---------------------------------|
A|--5-4--22--------5-4-22----------| 2x
E|---------------------------------|

PUNTEO:
G|------------------------------------------------|
D|------------------------------------------------|
A|------------------------2-2---2---2---2---------| 4x
E|---5-5---5---5---5-2--------------------4-------|

G|--------------------------------------------------------------------------|
D|--------------------------------------------------------------------------|
A|--------------------------------------------------------------------------|
E|--3-3--3--3--3-3---2-2--2--2--2-2----3-3--3--3--3-3----4-4--4--4--4-4-----|

CORO:
G|-----------------------------------------|
D|-----------------------------------------|
A|---2-2-----------------------------------| 4x
E|--------0000-00----5-5-----3333-33-------|


 FINAL:
G|---4---------------------4-------------------------------------------------|
D|-------4----7----2-----------4-----7--------7-----6----7---6---7---6-------|
A|--2---------------------2------------------5-----4----5---4---5---4--------|
E|------2----5----0-----------2-----5------------------------------------2---|

G|-----------------------------------------|
D|-----------------------------------------|
A|-----------------------------------------|
E|---3-----2----3----4----3----2----3------|



-------------------------------Fin-----------------------------
Este fichero es trabajo propio de su transcriptor y representa su interpretación personal de la canción. El material contenido en esta página es
para exclusivo uso privado, por lo que se prohibe su reproducción o retransmisión, así como su uso para fines comerciales.

© LaCuerda.net · Aviso Legal · Privacidad