Acordes de Guitarra » S »Soda Stereo » Entre Caníbales (Tab)

Entre Caníbales
Soda Stereo

Letras, Acordes y Tabs para Guitarra, Bajo y Ukulele

  •  MIm Do7/Sol RE   LAm (x4)
    e|--------------------|
    B|--------------------|
    G|--------------------|
    D|--------------------|
    A|7---0-2-3---5-------|
    E|--------------2-3-4-|
    
    DO/SOL RE (x4)
    
    (En las estrofas siguen las mismas notas o, si prefieres, puedes
    seguir con el punteo hasta el Do7)
    
    
         MIm  Do7/Sol  RE  LAm
    Una eternidad
        MIm Do7/Sol         RE   LAm
    esperé          este instante
            MIm    Do7/Sol  RE  LAm
    y no lo dejaré
    
  • (Am7 - G - D - Em)x2   (Am7-G-D-Dsus4-D-Am7)x1(Em-C/G-D-Dsus4-D-Am7)x2
    e---0-3--2-0-------------0-3--2-3-2--0--------0--0--2-3-2--0------
    b---1-0--3-0-------------1-0--3-3-3--1--------0--0--3-3-3--1------
    g---0-0--2-0-------------0-0--2-2-2--0--------0--0--2-2-2--0------
    d---2-0--0-2-------------2-0--0-0-0--2--------2--2--0-0-0--2------
    a---0-2--0-2-------------0-2--x------0--------2--3--0-x-0--0------
    E---x-3--x-0-0-3---------x-3--x------x--3-2-0-0--3--x-x-x--x-3-2-0
    
     (C/G - D)x4
    e---0---2--
    b---0---3--
    g---0---2--
    d---2---0--
    a---3---0--
    E---3---x--
    
    
         Em      Am7/G  D  Am7
    Una eternidad
        Em   Am7/G       D      Am7
    
  • Am7 - G - D - Em                x2
    Am7 - G - D-Dsus4-D- Am7        x1
    Em - C - D-Dsus4-D - Am7        x2
    
    C - D                           x4
    
         Em      C      D  Am7
    Una eternidad
        Em   C           D      Am7
    esperé          este instante
              Em    C      D   Am7
    y no lo dejaré
          Em C         D       Am7
    deslizar        en recuerdos quietos
    C7            D7                        E7
            ni en balas rasantes que matan.
    
    
    Coro:
    
    
  • -----------------------------------------------  E(Alta)
    -----------------------------------------------  B
    -----------------------------------------------  G
    --2---------0----------2--------0--------------  D         X 2
    ----0-2-3---------0------0-2-3--------0--------  A
    --------------2-3-----------------2-3----------  E(Baja)
    
    
    C    D C     D C    D C      D
    
    
    
         Emx2           Bm          D/Am
    Una eternidad   esperé este instante
            Emx2          Bm        D/Am            C7(x8)
    Y no lo dejaré   deslizar en recuerdos quietos
           D7x2                    E7x2
    Ni en balas rasantes    que matan.
    
    
    
  • |--------------------------------------------
    |--------------------------------------------
    |--------------------------------------------
    |--------------------------------------------
    |7--0-2-3---5----------7--0-2-3---5----------
    |-------------2-3-5-----------------2-3-5----
    
    |--------------------------------------------
    |--------------------------------------------
    |--------------------------------------------
    |--------------------------------------------
    |7--0-2-3---5----------7--0-2-3---5----------
    |-------------2-3-5-----------------2-3-5----
    
      C    D C   D C  D C  D
    |-0xx--2-0---2-0--2-0--2----------------------
    |-1xx--3-1---3-1--3-1--3----------------------
    |-0xx--2-0---2-0--2-0--2----------------------
    |-2xx--0-2---0-2--0-2--0----------------------
    |-3xx----3-----3----3-------------------------
    
  • -----------------------------------------------  E(Alta)
    -----------------------------------------------  B
    -----------------------------------------------  G
    --2---------0----------2--------0--------------  D
    ----0-2-3---------0------0-2-3--------0--------  A
    --------------2-3-----------------2-3----------  E(Baja)
    
    Interlude
      C    D    C    D    C    D    C      D (Final antes de la letra)
    --0----2----0----2----0----2----0------2---------  E(Alta)
    --1----3----1----3----1----3----1------3---------  B
    --0----2----0----2----0----2----0------2---------  G
    --2----0----2----0----2----0----2------0---------  D
    --3----0----3----0----3----0----3------0---------  A
    --3---------3---------3---------3----------------  E(Baja)
    
    Letra comienza:
    
        Em    G   D-Dsus4-D  Am
    Una eternidad
    
  •   Am        D            Am
    +-----------2---2--3--2------+
    |--0--1--0--3---3--3--3--1---|
    |--2--2--2--2---2--2--2--2---|
    |--2--2--2--0---0--0--0--2---|
    |--0--0--0-------------------|
    +----------------------------+
    
      Em C D Dsus4 D Am  2X  luego
    
      Em C D Dsus4 D C    D C  D C  D
    
    
    Verse I
    
        Em      Bm      D5           A5  G5
    Una eternidad , espere este instante
             Em    Bm      D5         C5
    y  no lo dejare deslizar en recuerdos viejos
    D5                            Em
    
  • Song:      Entre Canibales
    Artist:    Soda Stereo
    Tabbed by: Martin Endara
    
    
    
    Intro
    
    G-------------------     ------------------------
    D-------------------     ------------------------
    A-7---------5------- x4  -3-3-33-5-3r-5-3r-5-3r-5
    E--5-7/8-----2-3-/5-     ------------------------
    
    
    Verso
    
    G-------------------
    D-------------------
    A-7---------5------- x4
    E--5-7/8-----2-3-/5-
    
    
    Pre Coro
    
    G----------------------------------------------
    D----------------------------------------------
    A-33------33-----3--55-----55------------------
    E---0-3-5---0-3-5-5---0-3-5---0-3-5-7-000000000
    
    
    Coro
    G---------------    ------------------
    D---------------    ------------------
    A--------55-----x4  -7--------5------- x4
    E-55-3-33--0-000    --5-7/8----2-3-/5-
    
    
    G-------------------------------------
    D-------------------------------------
    A-3-3-33-2-3-3-33-2-3-3-33-2-3-3-33-2-
    E-------------------------------------
    
    
    r: Rest (descanso)
  • +
    ¡Colabora con nosotros!
    Envíanos tu versión de esta canción
  • Tutorial
    HD
    Como tocar Entre canibales (Unplugged)
    (Soda Stereo)
    33:32
  • Tutorial
    HD
    Como tocar "Entre caníbales" de Soda Stereo en guitarra
    11:43
  • Tutorial
    HD
    Como Tocar La Cancion Entre Canibales - Soda Stereo - Leccion de Guitarra Acustica Gustavo Cerati
    11:15
  • Tutorial
    HD
    Como tocar Entre Canibales ( Acustico )
    - Cerati HD
    2:30

Letra de Entre Caníbales
(En las estrofas siguen las mismas notas o, si prefieres, puedes
seguir con el punteo hasta el Do7)
Una eternidad
esperé este instante
y no lo dejaré
deslizar en recuerdos quietos
ni en balas rasantes que matan.
Ah..........come de mi come de mi carne.
Ah....................entre caníbales.
Ah..........tómate el tiempo en desmenuzarme
Ah....................entre caníbales.
Entre caníbales
el dolor es veneno, nena
y no lo sentirás
hasta el fin mientras te muevas lento, lento
y jadees el nombre que mata.
Ah..........come de mi come de mi carne.
Ah....................entre caníbales.
Ah..........tómate el tiempo en desmenuzarme
Ah....................entre caníbales.
Ahora viene sólo el punteo de la introducción por ocho compases:
Después viene un rasgueo medio cortado con las notas de la
introducción acompañado del punteo anterior por ocho compases:
Ah....................come de mí
Ah....................come de mí
Ah....................
Una eternidad
esperé este instante.
Acordes específicos:
e|-| e|-| e|-| e|-| e|-| e|3|
B|-| B|1| B|1| B|3| B|5| B|3|
G|-| G|-| G|3| G|5| G|7| G|2|
D|2| D|2| D|2| D|4| D|6| D|-|
A|3| A|3| A|3| A|5| A|7| A|-|
E|3| E|3| E|-| E|-| E|-| E|-|




[Entre Caníbales chords][Entre Caníbales cifra]
© LaCuerda.net · aviso legal · privacidad · es · en · pt · contacto