Tablatura para Guitarra de la Renga: Motoralmaisangre
Conexión · Inscripción
Letras y Acordes
Pantalla Completa
Imprimir
Versión Texto
Añadir Favorito
Otras Versiones

Mostrar Diagramas
Desfile Automático
Manipular Acordes
Formato del Texto


Motoralmaisangre(TAB)

la Renga

calidad:
reng0583
AUTOR: Gustavo Nappoli
ALBUM: La esquina del infinito (2000)
Enviado por Rodrigo
Bueno gente...aca les tengo el solo de este temazo,suena perfecto!!!
Espero q lo puedan sacar!



                             *
|------------------------------------------------------------------------|
|-------10-11b-11ba-11b-10-11b---11b-10-9-10-9-8--8-10-9----10-10--------|
|--9-12---------------------------------------------------8----8ba--8~~~-|
|------------------------------------------------------------------------|
|------------------------------------------------------------------------|
|------------------------------------------------------------------------|


|---------------------------------------------------|---------------------
|---------------------------------------------------|---------------------
|---------------------------------------------------|------5--------5-7ba-
|------------------------------------------------5--|--5-7---7p5h7--------
|--------12---------12---12-10-9-7-5-3h5p3h5-5s7----|---------------------
|--10-12------10-12---------------------------------|---------------------

                             *
---------------------------------|
---------------------------5-5---|
--5-7-5---7bap5-7bap5----7---7b--|
---------------------------------|
---------------------------------|
---------------------------------|


Vibrato                  ~
Estirar                  b
Estirar y Bajar          ba
Ligado ascendente        h
Ligado descendente       p
Slide                    s
Fijense cuando les marco * ...esto significa q estira varias veces.


Bueno esto fue todo...Aguante La Renga!!!!                    RoDrI.
Este fichero es trabajo propio de su transcriptor y representa su interpretación personal de la canción. El material contenido en esta página es
para exclusivo uso privado, por lo que se prohibe su reproducción o retransmisión, así como su uso para fines comerciales.

© LaCuerda.net · Aviso Legal · Privacidad