Acordes de Guitarra » R »la Renga » Montaña Roja (Tab)

Montaña Roja
la Renga

Letras, Notas, Punteos, Tablaturas y Acordes de Guitarra (Tabs & Chords)

  • Letra y Acordes
     A5
     Es tal vez como ver
     como la vez primera
     y queriendo atravesar
     cruces de mil barreras
    
    2)
    A5          C5      G5      A5
     La Montaña Roja sangra por mí
                 C5         G5
     un cañón al río de mis venas
    A5          C5      G5     A5
     la profundidad que se elevó
                C5        G5       D5
     llevará de mí lo que queda
    
     hacia las cumbres
    
     Riff 1
    |---------------------------|
    
  • Tablatura
    |-------------------------------------------------
    |------7----7-9-----------------------------------
    |-7~---7-9--7-9---7-9b10--9brp7-9-----------------
    |-7~-----9-------------------------9b*r9----7~*~--
    |-----------------------------------------9-------
    |-------------------------------------------------
    
    -------------------------------------
    -------------------------------------
    ----------------------------7~---9/--
    --5-7~*~-5------------------7~---9/--
    -------------5--3-5--3---------------
    -----------------------5~------------
    
     A5                 riff1
     Es tal vez como ver
     A5                  riff2
     como la vez primera
     A5                   riff3
     y queriendo atravesar
    
  • Tab p/Bajo
    Intro/ es tal cual ves…
    G|----------------------------
    D|----------------------------
    A|---3-4-5-4-3-----3-4-5-3---
    E|-3-----------3-3------------(x12)
    
    La montana roja…
    G-----------------------------
    D-----------------------------
    A|--2-2-2-2/0—-0/3-2--------
    E-----------------------------
    
    Llevara de mi lo que queda…
    G------------------------------------
    D------------------------------------
    A|-2-2-2-2/0—-0/3-22222222—3-2-0-2-3-
    E------------------------------------
    
    Guitarra/ yo pronto te vi creer...
    G---------------------------------
    D---------------------------------
    A|-2-2-0-0-3/2-2-0-0-3------------
    E---------------------------------
    
    Abrasado fuerte adonde voy...
    G-----------------------------
    D-----------------------------
    A|--2-2-2-2/0—-0/3-2--------
    E-----------------------------
    
    Llevara de mi lo que queda…
    G------------------------------------
    D------------------------------------
    A|-2-2-2-2/0—-0/3-22222222—3-2-0-2-3-
    E------------------------------------
    
    Solo d
  • +
    ¡Colabora con nosotros!
    Envíanos tu versión de esta canción

Letra de Montaña Roja
Es tal vez como ver
como la vez primera
y queriendo atravesar
cruces de mil barreras
2)
La Montaña Roja sangra por mí
un cañón al río de mis venas
la profundidad que se elevó
llevará de mí lo que queda
hacia las cumbres
Riff 1
(Todo en base de Riff 1):
Yo pronto me vi crecer
hacia un cielo de estrellas
y un trueno con tu voz
roja pintó la arena
2)
Abrazado fuerte a mí donde voy
hacia donde ya no hay fronteras
la profundidad que se elevó
llevara de mí lo que queda
hacia las cumbres
2)
(acá hace un silencio)
La Montaña Roja sangra por mí
un cañón al río de mis venas
la profundidad que se elevó
llevará de mí lo que queda
hacia las cumbres
Riff 1
2)
Abrazado fuerte a mí donde voy
hacia donde ya no hay fronteras
la profundidad que se elevó
llevara de mí lo que queda
Hacia las cumbres
Riff 1



© LaCuerda.net · Aviso Legal · Privacidad
DINAMICO