Acordes de Guitarra » R »la Renga » Moscas Verdes para el Charlatán (Tab)

Moscas Verdes para el Charlatán
la Renga

  • Letra y Acordes
    LA
      Palomitas de maiz,
     para esa boca abierta
    y un espejo retrovisor
     para que recuerde
    RE7
      Que metió la pata.
    
    Riff de intro
    
    LA
    moscas verdes para ese buche
    y un tesoro de su cagada para que recuerde
    RE7
      que metió la pata.
    
    Riff
    
    MI7                              RE7
    Se le fue la lengua hablando de más
    
  • Tablatura
    Intro
    
    E|----------------|----------------------*
    B|-4-2------------|-4br-2-4-------------- (esta ultima parte por 7)
    G|-----3-0-0-3-3-0|--------3-3-0-0-3-3-3-
    D|---------0-3-3--|--------------0-3-3---
    A|----------------|----------------------
    E|----------------|----------------------
    
    *
    (Después de que se toca la intro por primera vez
    la segunda guitarra toca esto)
    
    Segunda guitarra( lo toca solo una vez)
    
    E|------------------------------------------------------18b
    B|-17-15---------17-15-17----------17-15----------17br-15--
    G|------16-12-16----------16-12-16-------16-12-16----------
    D|---------------------------------------------------------
    A|---------------------------------------------------------
    E|---------------------------------------------------------
    
    Riff 1
    Palomitas de maíz
    Riff 2
    Riff 1
    para esa boca abierta
    Riff 3
    Riff 1
    Y un espejo retrovisor
    Riff 2
    Riff 1
    Para que recuerde  Riff 4 quee metio la pata
    
    Riff 1         Riff 2             Riff 3        Riff 4
    
    E|-------|--
  • Tablatura
    E||---------------------------|--------------------------|
    B||----/5----1--3-------------|--------------------------|
    G||----------------2----------|--------------------------|
    D||---------------------4-----|----0--2--0--2----2--0----|
    A||------------------------2--|-------0-----0------------|
    E||---------------------------|--------------------------|
    
    
    
    --------------------------|------------------------|
    --3br----1--3-------------|------------------------|
    ---------------2----------|------------------------| X3
    --------------------4-----|--0--2--0--2----2--0----|
    -----------------------2--|-----0-----0------------|
    --------------------------|------------------------|
    Verso 1:
    
    LA5                Riff 1
     Palomitas de maiz,
    LA5                   Riff 2
    
  • Tablatura
    Slide out upawards: /
    Bend (estirar): ^
    PreBend: ^=
    
    E|-10^--8-------------8-----------8-----8------------------------------------------------
    B|---------10--8--10-----10-10-10---10----10/--------------------------------------------
    G|---------------------------------------------------------------------------------------
    D|---------------------------------------------------------------------------------------
    A|---------------------------------------------------------------------------------------
    E|---------------------------------------------------------------------------------------
    
    E|-------------------------------------------------10-12---------------------------------
    B|13^-13^=-13--10------10-12-----10-12-13-12-10-12-------13---10----10/------------------
    G|-----------------11---------11---------------------------------11----------------------
    D|---------------------------------------------------------------------------------------
    A|-----------------------------
  • +
    ¡Colabora con nosotros!
    Envíanos tu versión de esta canción

Letra de Moscas Verdes para el Charlatán
Palomitas de maiz,
para esa boca abierta
y un espejo retrovisor
para que recuerde
Que metió la pata.
Riff de intro
moscas verdes para ese buche
y un tesoro de su cagada para que recuerde
que metió la pata.
Riff
Se le fue la lengua hablando de más
de sus desaciertos
Riff
Moscas verdes para el charlatán
y una patada en el trasero
para que recuerde
que esa fue mi pata
Riff
Se le fue la lengua, quería volar
y no era cierto
Yo no sé para qué habló
si después se arrepintió
de su letra
a lo mejor temió que su suerte
le diera palos a su inconciente
y ya no lo dejara dormir
Yo no sé para qué habló
si después se arrepintió
de su letra
a lo mejor temió que su suerte
le diera palos a si inconciente
moscas verdes al charlatán
y que no hable nunca
mas
Referencias: ^ = estirar
x = tapar



© LaCuerda.net · aviso legal · privacidad · contacto
DINAMICO