Acordes de Guitarra » R »la Renga » Mirada de acantilado (Tab)

Mirada de acantilado
la Renga

Letras, Notas, Punteos, Tablaturas y Acordes de Guitarra (Tabs & Chords)

  • Letra y Acordes
    e|----------------------------------|
    B|--------3-------------------------|
    G|-2b4r2----4-2b4r2-----------------|
    D|------4-----------4-2b4r2---------|
    A|--------------------------4-4444--|
    E|----------------------------2222--|
    
    
    B5           E5
    Estando solo todo se puede desolar
    B5               E5
    Y hay nada si, o mas que nada esperar
    B5             E5
    En el desierto es difícil ocultar
    B5             E5           F#5
    Toda la mente que me trajo hasta acá
    
    
    B5
    Por favor!
    
  • Letra y Acordes
    e|----------------------------------|
    B|--------3-------------------------|
    G|-2b4r2----4-2b4r2-----------------|
    D|------4-----------4-2b4r2---------|
    A|--------------------------4-4444--|
    E|----------------------------2222--|
    
    
    B5           E5
    Estando solo todo se puede desolar
    B5               E5
    Y hay nada si, o mas que nada esperar
    B5             E5
    En el desierto es difícil ocultar
    B5             E5           F#5
    Toda la mente que me trajo hasta acá
    
    
    
    
    
  • +
    ¡Colabora con nosotros!
    Envíanos tu versión de esta canción

Letra de Mirada de acantilado
Estando solo todo se puede desolar
Y hay nada si, o mas que nada esperar
En el desierto es difícil ocultar
Toda la mente que me trajo hasta acá
Por favor!
Ven y robame de ti
Oyelo!
Con aquel grito enmudecí
Se perdió!
En el vacío frente a mi
Y empezó!
El todo de repente se ausentó
Con mi mirada de acantilado
Veo las olas de la nada golpeando
Allá abajo donde todo es profundo
Como el cielo que su orilla desbordó
Por favor!
Ven y robame de ti
Oyelo!
Con aquel grito enmudecí
Se perdió!
En el vacío frente a mi
Y empezó!
El todo de repente se ausentó
Es mi mirada de acantilado
El horizonte ya no tiene a dónde ir
Y no estoy ciego solo hay nada frente a mi
Ahora te veo como nunca te pedí
Por favor!
Ven y robame de ti
Oyelo!
Con aquel grito enmudecí
Se perdió!
En el vacío frente a mi
Y empezó!
El todo de repente se ausentó



© LaCuerda.net · Aviso Legal · Privacidad
DINAMICO