Acordes de Guitarra » R »la Renga » Las cosas que hace (Tab)

Las cosas que hace
la Renga

Letras, Notas, Punteos, Tablaturas y Acordes de Guitarra (Tabs & Chords)

  • Letra y Acordes
    D# 5   B5   G#5  F#5
    
    E5
    Ella vive en el,
    En el palacio de la risa y el dolor,
                                            F#5
    Y me hace señas porque yo la estoy mirando,
                                    E5
    Y no tengo a donde ir.
    
    E5
    Se que me dirá,
    Que estaba sola porque nunca me encontró,
                                 F#5
    Y porque ella ha besado a la muerte,
                                          E5
    Con los labios del corazón.
    
    D#5
    Ese pobre corazón, que se muere por vivir,
    
  • Tablatura
    Intro :  DO#5 - SI5 - SOL#5 - FA#5
    
    MI5
    Ella vive en el, en el palacio de la risa y el dolor, 
                          FA#5
    Y me hace señas porque yo la estoy mirando
                      MI5
    Y no tengo a dónde ir
    
    Se que me dirá que estaba sola porque nunca me encontró
                     FA#5
    Y porque ella ha besado la muerte
                           MI5
    Con los labios del corazón
    
    1º ESTRIBILLO:
    
    DO#5
    Ese pobre corazón que se muere por vivir,
    
    
  • Tablatura
    E5
    Ella vive en él
    
    En el palacio de la risa y el dolor
                           F#5
    y me hace señas porque yo la estoy mirando,
                     E
    y no tengo donde ir,
    
    Sé que me dirá,
    
    Que estaba sola porque nunca me encontró,
                     F#5
    y porque ella ha besado a la muerte,
                           E5
    con los labios del corazón
    
    C#5
    Ese pobre corazón que se muere por vivir,
    E5
    
  • Tablatura
             D#5     C#5    A#5    F#5    E5
    e|------------------------------------------------------|
    B|------------------------------------------------------|
    G|------------------------------------------------------|
    D|------11-11-------------------------------------------|
    A|------11-11---9-9----6-6----4-4----2-2----------------|
    E|------9--9----7-7----4-4----2-2----0-0----------------|
    
    ==================================================================
    
                                 E5  
    e|---------------------------------------------------------------|
    B|---------------------------------------------------------------|
    G|---------------------------------------------------------------|
    D|---------------------------------------------------------------|
    A|----2-2-2-2-2---2-2--2---2-2--2---2-2-2-2-2-2-2-2---2-2--2-----|
    E|----0-0-0-0-0---0-0--0---0-0--0---0-0-0-0-0-0-0-0---0-0--0-----|
      
          Ella vive en el, en el palacio de la risa y el dolor,
    
    
  • Tablatura
    PUNTEO
    
    e|---------------------------------------------------
    b|-----------14-12---12-12-12-9-12-14-9-12-9-12-7-7--
    g|-9*---9-11-9---------------------------------------
    D|---------------------------------------------------
    A|---------------------------------------------------
    E|---------------------------------------------------
    
    e|----------------------------------12----------------
    b|-----------14-12---12-12-12-9-12----14-12-9-7-9-7-5-
    g|-9*---9-11-9------------------------------------------
    D|----------------------------------------------------
    A|----------------------------------------------------
    E|----------------------------------------------------
    
    * = desliza desde el traste 3
    
    FINAL
    
    e|-----------------------
    b|-----------14-12-------
    g|-9*---9-11-9-----------
    D|---------------------2-
    A|---------------------2-
    E|---------------------0-
  • Tab p/Bajo
    intro:
    G|--------|
    D|--------|
    A|--4-2---|
    E|-----4-2|
    
    ella vive en el....
    despues de la guitarra..
    G|----------------------|
    D|----------------------|
    A|----------------------|
    E|-2-2-2-2-2-1-2-2-2-2-2|
    
    G|----------------------------|
    D|----------------------------|
    A|----------------------------|
    E|--0-0-0-0-0-0-0-0-0-0-0-0-0-|
    
    se q me dira...
    G|----------------------------|
    D|----------------------------|
    A|-------------7-7-7----------|
    E|--0-0-0-0-0-----------------|
    
    q estaba sola...
    G|-------------------------------|
    D|-------------------------------|
    A|--------------------------7-7-7|
    E|--0-0-0-0-0-0-0-0-0-0-0-0------|
    
    y porq ella ...
    G|---------------------------------|
    D|---------------------------------|
    A|------------2-2-2-2-2-1-2-2-2-2-2|
    E|--0-0-0-0-0----------------------|
    
    
    G|-------------------------------|
    D|-------------------------------|
    A|--------------------------7-7-7|
    E|--0-0-0-0-0-0-0-0-0-0-0-0------|
    
    ese pobre cor
  • +
    ¡Colabora con nosotros!
    Envíanos tu versión de esta canción

Letra de Las cosas que hace
Ella vive en el,
En el palacio de la risa y el dolor,
Y me hace señas porque yo la estoy mirando,
Y no tengo a donde ir.
Se que me dirá,
Que estaba sola porque nunca me encontró,
Y porque ella ha besado a la muerte,
Con los labios del corazón.
Ese pobre corazón, que se muere por vivir,
Las cosas que hace, se manda con todo a todo
Siempre le fue al riesgo fiel y a tratado sin razón
De poderla convencer, que no trate de pensar
Que la acepte como es, que por eso la eligió
Quien fuera su gran mentor,
Lo ha dotado con el filo aquel
Que sangra las venas del amor
El, el que te ha sabido desbocar,
A vos, que lo llevas con tanta fiebre en la piel,
Vos, que cargas sus penas por error. Error
Y yo ya vivo en él, en el palacio de la risa y el dolor,
Y te hago señas porque yo te estoy mirando,
Y no tenes donde ir.
Te voy a decir, que estaba solo porque nunca te encontré,
Y porque yo también he besado a la muerte,
Con los labios del corazón.
Ese pobre corazón, que se muere por vivir,
Las cosas que hace, se manda con todo a todo
Siempre le fue al riesgo fiel y a tratado sin razón
De poderla convencer, que no trate de pensar
Que la acepte como es, que por eso la eligió
Quien fuera su gran mentor,
Lo ha dotado con el filo aquel
Que sangra las venas del amor
El, el que te ha sabido desbocar,
A vos, que lo llevas con tanta fiebre en la piel,
Vos, que cargas sus penas por error. Error
Ese pobre corazón, que se muere por vivir,
Las cosas que hace, se manda con todo a todo
Siempre le fue al riesgo fiel y a tratado sin razón
De poderla convencer, que no trate de pensar
Que la acepte como es, que por eso la eligió
Quien fuera su gran mentor,
Lo ha dotado con el filo aquel
Que sangra las venas del amor
El, el que te ha sabido desbocar,
A vos, que lo llevas con tanta fiebre en la piel,
Vos, que cargas sus penas por error. Error
AGUANTE TIGRE Y LA RENGA

[ver todas las canciones]


© LaCuerda.net · Aviso Legal · Privacidad