Acordes de Guitarra » R »la Renga » La vida, las mismas calles (Tab)

La vida, las mismas calles
la Renga

Letras, Acordes y Tabs para Guitarra, Bajo y Ukulele

  • B|-----------------------------------------------
    G|--------------------------------
    D|-------------------------------------------
    A|-----------2-2--1234310------------2-2-------1234310-----------2-2-
    E|--3-0-0-0-----------------3-0-0-0-----------------------3-0-0-0-------
    
    
    VERSO: SOBRE E5 y cada vez ke termina hace el riff
    
    Hoy me devuelvo al infinito,
    porque ya me pertenezco,
    hoy me devuelvo de donde vengo,
    para poder continuar.
    
    Qué es lo que dicen esas voces,
    si las estrellas no hablan,
    si siempre alguien del infinito me llama,
    
                   C5              D5
    y todo está tan acá, acá, acá, acá, acá, acá,
    
  • e|-------------------------------------------------------------------
    B|-------------------------------------------------------------------
    G|-------------------------------------------------------------------
    D|-------------------------------------------------------------------
    A|-------------2--2p1-2-4-5p4------------2--2p1-2-4-5p4------------2-
    E|--0h3-0--0-0-0--------------0h3-0--0-0-0--------------0h3-0--0-0-0-
    
    e|-------------------------------------------------------------------
    B|-------------------------------------------------------------------
    G|-------------------------------------------------------------------
    D|-------------------------------------------------------------------
    A|-2p1-2-4-5p4------------2-2-2--------------------------------------
    E|-------------0h3-0--0-0-0-0-0--------------------------------------
    
       E5 (palm-muting)
      Hoy me devuelvo al infinito
    
      porque ya no me pertenezco
    
      hoy me devuelvo de donde vengo
    
  • +
    ¡Colabora con nosotros!
    Envíanos tu versión de esta canción

Letra de La vida, las mismas calles
VERSO: SOBRE E5 y cada vez ke termina hace el riff
Hoy me devuelvo al infinito,
porque ya me pertenezco,
hoy me devuelvo de donde vengo,
para poder continuar.
Qué es lo que dicen esas voces,
si las estrellas no hablan,
si siempre alguien del infinito me llama,
y todo está tan acá, acá, acá, acá, acá, acá,
toda la vida las mismas calles,
toda la vida las mismas calles,
toda la vida las mismas calles,
toda la vida las mismas calles,
Interludio:
SOLO!
hoy doblo siempre la misma esquina,
la esquina del infinito,
toda la vida las mismas calles,
y ya no puedo volver.
¿Que es lo que mueve tu siempre?
si siempre nunca te alcanza,
si siempre alguien del infinito te llama,
y todo está tan acá, acá, acá ,acá, acá, acá
Toda la vida las mismas calles,
Toda la vida las mismas calles,
Toda la vida las mismas calles,
Toda la vida las mismas calles,
Todas la vidas las mismas calles,
Todas la vidas las mismas calles,
Todas la vidas las mismas calles,
Todas la vidas las mismas calles,




[La vida, las mismas calles chords][La vida, las mismas calles cifra]
© LaCuerda.net · aviso legal · privacidad · es · en · pt · contacto