Acordes de Guitarra » R »la Renga » Lo frágil de la locura (Tab)

Lo frágil de la locura
la Renga

Letras, Acordes y Tabs para Guitarra, Bajo y Ukulele

  • INTRO:  Am  E  D#  D  x4
    
    
    Am              F
    La sangre inquietaba en mis venas
          C             G
    y aquel verano al norte partí
    Am                 F
    para olvidarme de mi rutina
          C         G
    y sentirme liberado al fin.
    
    Dm               F
    Ver la tierra bañada de sol,
          C                 G
    respirar aire en las alturas,
    Dm         F
    llenar el cuenco de mis ojos,
    C                  G
    con lo más frágil de la locura.
    
  • Hola a todos....
    Este es el solo de 'lo fragil de la locura', creo que está bastante bien sacado,
    espero que les sirva y si hay que hacerle alguna corrección , será bienvenida.
    
    
    e------------------------------------------8------------------------------
    B----------------------7--------------8-10---10--10p8---8-8-------8-------
    G--5-------5---5-7/--9---9-9p7p5---9------------------9-----9-7s9---9-8-7-
    D----5-7-7---7------------------------------------------------------------
    A-------------------------------------------------------------------------
    E-------------------------------------------------------------------------
    
    
    ---------------------------------------------------------------------------------
    ---------------------------------------------------------------------------------
    ---------------------------------------------------------------------------------
    ---------------------------------------------------------5-7-7p5-5-5-------------
    -----2-3-5-3-2------3
  •    A5    E5 D#5 D5
    |----------------------------|
    |-------------------5H7P5----|
    |-------------------5H7P5-7--|
    |--7-7-7--9--8--7---------7--|
    |--7-7-7--7--6--5------------|
    |--5-5-5---------------------|
    
    
       A5    E5 D#5 D5
    |----------------------------|
    |-------------------5H7P5----|
    |-------------------5H7P5-7--|
    |--7-7-7--9--8--7---------7--|
    |--7-7-7--7--6--5------------|
    |--5-5-5---------------------|
    
    
    
       A5    E5 D#5 D5
    
  •    A5    E5 D#5 D5
    |----------------------------|
    |-------------------5H7P5----|
    |-------------------5H7P5-7--|
    |--7-7-7--9--8--7---------7--|
    |--7-7-7--7--6--5------------|
    |--5-5-5---------------------|
    
    
       A5    E5 D#5 D5
    |----------------------------|
    |-------------------5H7P5----|
    |-------------------5H7P5-7--|
    |--7-7-7--9--8--7---------7--|
    |--7-7-7--7--6--5------------|
    |--5-5-5---------------------|
    
    
    
       A5    E5 D#5 D5
    
  • Intro
    1/------------------------(x4)
    2/------------------------
    3/-------7--6--5----------
    4/-5--5-------------------
    
    
    1er Verso:(este se divide en dos partes, una comienza en LA y la otra en RE)
    1/-----------------------(x2)
    2/-----------------------
    3/-----------(3)---------
    4/-(5)--(1)-------(3)----
    
    1/-----------------------
    2/-----------------------
    3/-(5)-------(3)---------
    4/------(1)-------(3)----
    
    1/-----------------------
    2/-----------------------
    3/-(5)-------(3)---------
    4/------(1)-------3(x8)--
    
    Los parentesis significan que tenes que dejar sonar la cuerda durante todo el compás.
    (Para los que entienden un poco más, el simbolo que representan es una redonda).
    
    
    2do Verso:
    1/------------------------------------
    2/------------------------------------
    3/---------------3(x8)----------------
    4/-5(x8)--1(x8)---------3(x8)---------
    
    1/------------------------------------
    2/------------------------------------
    3/---------------3(x8)----------
  •       _____________________________________
         /
    +---+---------------------------------------+---+
    |   | 1 | 2 | 3 | 4 | 5 | 6 | 7 | 8 | 9 | 10| G |
    +---+---------------------------------------+---+
      ___________________________LaRenGa73__________/
    
    La RenGa
    Lo Fragil de la Locura
    Armonica en G (Sol)
    * Este es el solo que hace "chiflo" con el saxo a los 02:07mts
    pero tambien se puede hacer con la armonica.
    
    (x)   : Aspirar
     x    : Soplar
     m    : Movimiento de la mano y la armonica
     *    : Tremolo: Pronunciando "uE"
    (b)*      : Bending Profundo Pronunciando "ue"
    <(4)b(5)> : Soplar o Aspirar las notas contiguas rapido con bending
                de izq. a der. o al revez
        >     : Ligado: pasar de un agujero a otro rap. sin dejar
                de aspirar o  soplar
    === > : Cuando aparezcan dos notas pegadas, se aspiran o soplan juntas.
    --- > : Mantener un tiempo
    Referencias:
    
    (4b--->)* (2b--->)* (1b--->)* m <(4)b(5)>
    
    b(4ué)*(4ue)*(4ué)*(5ue)*(4ué)*(3)4 - b(
  • Buenas gente, la transcripción anterior la verdad que no me sonaba del todo,
    entonces la saqué y así quedo, espero que les sirva!
    
      X= Soplado
    (X)= Aspirado
    --]= Se sostiene la nota
     XY= Se soplan/aspiran juntas
    X-Y= Se conectan las notas. Se sigue aspirando/soplando de X a Y
     Xb= bending
     Xm= movimiento de mano y armónica
    
    
    Las comas no significan nada, sólo creo que resulta más fácil leerlo así
    
    
    Sólo del final, armónica en G
    
    (4) (4) (4) 56, (5) (5) (5) 67, (6) (6) (6) 6 (5) 7--],
    
    (6) 6,(6) 6 (5) 7, (6) 6 (5) 7, (6) 6 (5) 7, (8)-(6) 7--]4,
    
    (4) (4) (4), (4) 5 (5) 5 (4) 4, (5) 6 (6b) (6b) (6b) (6b) 6 (5) 5m--]4,
    
    (4) 5 (5) 4 (5) 6 (6), (5) 6 (6) 7 (6) 6 (5), (6b--]),
    
    (6) 6 (5) 5 (4) 4, (4bm---------])... (4b) (4b)
    
    
    
    
    Aguante La Renga loco!!!
    Salud!
  • Las notas entre parentesis son aspiradas
    las que no tienen nada son las sopladas.
    
    LO FRAGIL DE LA LOCURA
    LA RENGA
    Armonicista: Manuel Varela
    armonica en G (sol) solo del final (Transcriptor: doni de nqn)
    
     6b= nota curvada
    <=>= soplar las notas contiguas rapido.
     m = movimiento de las manos.
    ===> cuando aparezcan dos notas pegadas, se aspiran o soplan juntas.
    
    el solo es al final
    
    45 (4)(4)(4)
    56 (5)(5)(5)
    67 (6)(6)(6) 6 (5)(7) (6)6
    (6)6(5)(7)-(6)6(5)(7)-(6)6(5)(7)-(8)(6)7
    45 (4)(4)(4) 5(5)5 (4)(4)
    4(4) (5)b(5)b(5)b(5)b(5)b 5(4)5<=>4
    (4)5(5)(4)5(5)6
    (5)6 (6)b 7 (6)b 6 5tui w - 5tui w
    (5)5(4)5(4)4(4)m largo
    y cierra 4b 4b.
    
    las ultimas notas se hacen muy rapido salvo el cierre.
     espero que les salga, si
    le corrigen algo por favor avisenme jaja no
    vaya a ser que haga papelones...
  • +
    ¡Colabora con nosotros!
    Envíanos tu versión de esta canción

Letra de Lo frágil de la locura
La sangre inquietaba en mis venas
y aquel verano al norte partí
para olvidarme de mi rutina
y sentirme liberado al fin.
Ver la tierra bañada de sol,
respirar aire en las alturas,
llenar el cuenco de mis ojos,
con lo más frágil de la locura.
Pero también la realidad mostró
otro reflejo en ella
cuando me habló un hermano al que también,
me llevó la huella.
Ya que vas a escribir, dijo,
cuenta de mi pueblo,
pobreza y dolor sólo trajo el progreso,
la cultura de la traición y los indios en los museos.
Me invitó a mascar de su hierba
y a morder de la pura verdad
me preguntó de que se ocupaban allá
en la capital
y yo sólo tuve palabras para definir la injusticia
y que sólo aspiraban al fruto de la propia codicia.
Al fin ví la tierra bañada de sol,
respiré aire de las alturas
y llené el cuenco de mis ojos,
con lo más frágil de la locura.
Ya que vas a escribir, dijo,
cuenta de mi pueblo,
pobreza y dolor sólo trajo el progreso,
la cultura de la traición y los indios en los museos.




[Lo frágil de la locura chords][Lo frágil de la locura cifra]
© LaCuerda.net · aviso legal · privacidad · es · en · pt · contacto