Acordes de Guitarra » R »la Renga » La furia de la bestia rock (Tab)

La furia de la bestia rock
la Renga

Letras, Acordes y Tabs para Guitarra, Bajo y Ukulele

  •  A5                             D5  C5  (aca hace ritmo de rock n roll)
    e---------------------------------------
    b---5-----------------------------------
    d---5-7-8-7-5h7p5-4-5-4-----------------
    g-----------------------7-5-7-5--7--5---  x 4
    a-7------------------------------5--3---
    E-5-------------------------------------
    
                     (A5-G5)
    Ya se juntan en el canto y se empiezan a encender
    se vienen de todas partes, hoy vienen todos a ver
    
    E5         F5                     E5
    como desde la chispeante luz interior
    F5           E5                  A5
    se desata la furia de la bestia rock
    
    Intro:
    
    Se comulgan los planetas y se oye hasta pluton
    
  • Esta es la tab del primer solo que vi que en la
    transcripcion anterior no esta.
    
    |-------------------------------------------------------------------------
    |---------------------------------------------------1010-1212-1010-12-----
    |------------------5-4-----4-5-7s9-9999-7-5-7s9-99--1010-1212-1010-12-----
    |-----7---7---7s9------7~-------------------------------------------------
    |-5-7---5---5-------------------------------------------------------------
    |-------------------------------------------------------------------------
    
    |-------------------------------------------------------------------------
    |-------------------------------------------------------------------------
    |------9-7h9p7-7-5h7p7-5-4h5p4------------12h14-12h14p12--14s16-1414------
    |------------------------------7~---12h14---------------------------------
    |-5-7---------------------------------------------------------------------
    |-------------------------------------------------------------------------
    
    |----------------
  • +
    ¡Colabora con nosotros!
    Envíanos tu versión de esta canción

Letra de La furia de la bestia rock
Ya se juntan en el canto y se empiezan a encender
se vienen de todas partes, hoy vienen todos a ver
como desde la chispeante luz interior
se desata la furia de la bestia rock
Se comulgan los planetas y se oye hasta pluton
la patrulla del espacio ha escuchado el estruendo
de la voz gritando sangre de su corazon
palpitando en la furia de la bestia rock
Aca biene el solo: es muy facil, pero yo prefiero hacer solos propios
asi que se lo dejo a ustedes. si es muy necesario pidanlo jaja.
OJO! ACA CAMBIA DE TONO
Ya se juntan el el cielo y se empiezan a abrazar
un remolino de estrellas hoy se puede contemplar
y desbordado del alma sera tu ilucion
quien mantenga la furia de la bestia rock.
Eso es todo loco espero les sirva!!
SEBASTIAN BUSTAMANTE
Cosquin - Cordoba




[La furia de la bestia rock chords][La furia de la bestia rock cifra]
© LaCuerda.net · aviso legal · privacidad · es · en · pt · contacto
DINAMICO