Acordes de Guitarra » R »la Renga » Luciendo mi saquito blusero (Tab)

Luciendo mi saquito blusero
la Renga

Letras, Acordes y Tabs para Guitarra, Bajo y Ukulele

  • e|-------------------------------------|
    B|-------------------------------------|
    G|-------------------------------------|
    D|------7-7-----7-----7-7-----7--------| (x4)
    A|------5-5-----5-----5-5-----5-----5--|
    E|--5-7-----5-7---5-7-----5-7---7-5-3--|
    
    INTRO RIFF (x2)
    Vas a estar tranquila esperando con tu tonta ambición,
    Que él llegue el tan millonario, en su súper sport.
    A                          G
    Van a ir a cenar a esos lugares,
    A                   G
    Donde conmigo nunca pudiste conocer.
    
    [INTRO] (x2)
    
    INTRO RIFF (x2)
    Quizás mi fortuna de lata nunca te iba a alcanzar,
    Para comprar todas esas pieles y esas perlas del mar.
    
  • -------------------------------------------------------------------------
    ------2---2---------2-------2--2--------2--------------------------------
    -1-3-------------3----1--3--------1--3-----1---1-------------------------
    --------------6-----------------------------------4----4-(largo)-4--4----
    -------------------------------------------------------------------------
    -------------------------------------------------------------------------
    (se hace 2 veces en la intro)
    
    Si se quiere tocar a dos violas la segunda viola tendria q hacer esto
    
            C#5
    Vas a estar
    
    tranquila esperando
                  F#5
    con tu tonta ambicion
             C#5
    que el llegue
    
    tan millonario
    
  • [B]--------------------------------------------------------------[B]
    [G]--------------------------------------------------------------[G]
    [D]--------------------------------------------------------------[D]
    [A]----------55-----------5-----------55-----------5-------------[A]
    [E]--5---7-------5----7-------5---7--------5---7------5---7---3--[E]
    
    
    A                                          D
    Vas a estar tranquila esperando con tu tonta ambision
    A                               D
    A que llége él tan millonario, en su super sport
    A
    Van a ir a cenar a esos lugares
    E                     D             A
    donde conmigo nunca pu-pudiste conocer
    
    Intro
    
    Quizas mi fortuna de lata nunca te iba a alcanzar
    para comprar todas esas pieles y esas perlas del mar
    
  • Intro / vas a estar ...
    G|-------------------------------------------------------------|
    D|-------------------------------------------------------------|
    A|-0-3-5-5--0-3-5-0-3-5-5--0-3-5-3-0---------------------------|
    E|-------------------------------------3-3-3-3--1h3--3-3-3-3---|
    
      va a ir a senar ...
    G|-------------------------------------------------------------|
    D|-----------4-------------2-------------4---------------------|
    A|----44--6---------22--4---------44--6------5-----------------|  patron A
    E|-55-----------33------------55-------------------------------|
    
      repite intro / quisas mi fortuna ...
    G|-------------------------------------------------------------|
    D|-------------------------------------------------------------|
    A|-0-3-5-5--0-3-5-0-3-5-5--0-3-5-3-0---------------------------|
    E|-------------------------------------3-3-3-3--1h3--3-3-3-3---|
    
       va a ir a senar ...
       ahora volas tan alto ...
    G|-------------------------------------------------------------|
    D|----
  • +
    ¡Colabora con nosotros!
    Envíanos tu versión de esta canción

Letra de Luciendo mi saquito blusero
Vas a estar tranquila esperando con tu tonta ambición,
Que él llegue el tan millonario, en su súper sport.
Van a ir a cenar a esos lugares,
Donde conmigo nunca pudiste conocer.
Quizás mi fortuna de lata nunca te iba a alcanzar,
Para comprar todas esas pieles y esas perlas del mar.
Ahora volás tan alto que ignoras al barrio,
Miras para otro lado piojo resucitado.
Vas a manchar mi camisa de fina seda,
Con el mejor champagne que el te va convidar.
Mientras yo voy estar en algún agujero,
Luciendo mi sa-saquito blusero.
Base: (INTRO) (x2) (A | G) (x2)
Vas a manchar mi camisa de fina seda,
Con el mejor champagne que el te va convidar.
Mientras yo voy estar en algún agujero,
Luciendo mi sa-saquito blusero.
Base: (INTRO) (x2) (A | G) (x2)
OUTRO




[Luciendo mi saquito blusero chords][Luciendo mi saquito blusero cifra]
© LaCuerda.net · aviso legal · privacidad · es · en · pt · contacto