Acordes de Guitarra » R »la Renga » Me hice canción (Tab)

Me hice canción
la Renga

  • Letra y Acordes
    A#-C (x4)
    Si cuando perdí la razón,
                       F-G (x4)
    Querías culparme de algo.
    A#-C (x4)
    La culpa la tuve yo,
                  F-G (x4)
    Me hice canción.
    
    A#-C (x4)
    Y ahora me siento tan libre,
                               F-G (x4)
    Culpador culpando al culpable.
    A#-C (x4)
    Trafico un poco de emoción,
                  F-G (x4)
    Me hice canción.
    
    F
    Como encender ese fuego,
    
  • Letra y Acordes
    intro:DO SOL (x2)
    
        DO
    Si cuando perdí la razón
               SOL
    querías culparme de algo
       DO
    la culpa la tuve yo
                 SOL
    me hice canción.
    
    Y ahora me siento tan libre
    culpador culpando al culpable
    trafico un poco de emoción
    me hice canción.
    
    FA
     Cómo encender ese fuego
            DO
    que da luz a mi eternidad
    
  • Tab p/Bajo
    Afinación: E A D G
    
    Intro x2
    G|------------------------|------------------------|
    D|------------------------|------------------------|
    E|-33-1-33-1-33-1-3-1-----|------------------1-----|
    A|--------------------3-1-|-33-1-33-1-33-1-3---3-1-|
    
    Verso x4                                             
    G|------------------------|------------------------|
    D|------------------------|------------------------|
    E|-33-1-33-1-33-1-3-1-----|------------------1-----|
    A|--------------------3-1-|-33-1-33-1-33-1-3---3-1-|
    
    La Primera parte del verso puede variar asi:
    G|------------------------|
    D|-----------------1------|La segunda parte seria igual
    A|33-1-33-1-33-1-3---3-1--|
    E|------------------------|
    
    Coro
    G|-------------------------------------------------------------|
    D|---------------------------------------3---------------------|
    A|-------------------0-1-3-3-3-3-3-3-3-5---5-3-----------------|
    E|-1-1-1-1-1-1-1-1-3---------------------------1-1-1-1-1-1-1-1-|
    
                
  • +
    ¡Colabora con nosotros!
    Envíanos tu versión de esta canción

Letra de Me hice canción
Si cuando perdí la razón,
Querías culparme de algo.
La culpa la tuve yo,
Me hice canción.
Y ahora me siento tan libre,
Culpador culpando al culpable.
Trafico un poco de emoción,
Me hice canción.
Como encender ese fuego,
Que da luz a mi eternidad,
Como en suave letargo,
No se más quien soy.
Un silbido, fueron mis venas.
Mi cabeza la distorsión.
Mi alma, el sentimiento.
Me hice canción.
Base: A#-C (x4) | F-G (x4) | A#-C (x4) | F-G (x4) | F | C | F | G | G-G#-A
Un silbido, fueron mis venas.
Mi cabeza la distorsión.
Mi alma, el sentimiento.
Me hice canción.
Me hice canción.
Me hice canción.
Base: C-D (x4) | G-A (x4)



© LaCuerda.net · aviso legal · privacidad · contacto