Tablatura para Bajo de la Renga: Motoralmaisangre
Conexión · Inscripción
Letras y Acordes
Pantalla Completa
Imprimir
Versión Texto
Añadir Favorito
Otras Versiones

Mostrar Diagramas
Desfile Automático
Formato del Texto


Motoralmaisangre(BAJ)

la Renga

calidad:
reng0582
AUTOR: Gustavo Nappoli
ALBUM: La esquina del infinito (2000)
Enviado por Juan
INTRO

E|----3-------------------------------3---|
A|-0-2--3h-5-5-5-5-5-3h-5-5-5-5-5 0-2--3h5|
D|----------------------------------------|
G|----------------------------------------|

ESTROFAS
(Si en sus manos ya no...)
E|----3--------------------------|
A|-0-2--3h-5-5-5-5-5-3h-5-5-5-5-5|
D|-------------------------------|
G|-------------------------------|

ESTRIBILLO
(Revisa todo....)

E|-------5(X8)-----5(X8)-----5(X8)-3(X8)---------|
A|-3(X8)------3(X8)-----3(X8)------------3-2-3-5-|
D|-----------------------------------------------|
G|-----------------------------------------------|

PRE-SOLO

E|----3-----3---|
A|-0-0-0-2-0-0-0|Esto se hace
D|--------------|4 veces
G|--------------|

SOLO

E|-------5(X8)-----5(X8)-----5(X8)-3(X8)---------|
A|-3(X8)------3(X8)-----3(X8)------------3-2-3-5-|TRES
D|-----------------------------------------------|VECES
G|-----------------------------------------------|

FINAL

E|--5--5--|
A|--------|
D|--------|
G|--------|


Bueno esto es toda la cancion, espero q les guste porq
esta casi perfecta, alguna correccion o sugerencia me
pueden escribir a mi direccion de email
Ricoteroxmifelicidad@hotmail.com
Este fichero es trabajo propio de su transcriptor y representa su interpretación personal de la canción. El material contenido en esta página es
para exclusivo uso privado, por lo que se prohibe su reproducción o retransmisión, así como su uso para fines comerciales.

© LaCuerda.net · Aviso Legal · Privacidad