Acordes de Guitarra » R »la Renga » El twist del pibe (Tab)

El twist del pibe
la Renga

Letras, Acordes y Tabs para Guitarra, Bajo y Ukulele

  • E                               C                   G
    La vieja palabra destino,quiso sorprender a su suerte,
    E                                  C            G
    le cruzo en medio del camino,la sonrisa de la muerte;
    E                                         C
    bellos dientes para una sonrisa dijo,pero no para volver a
    G
    verte,
    E                                    C             G     B
    si el destino lo tiene planeado,echada estaba su suerte...
    
    SAXO (E-B-C-G-B-C)
    
    (con E5,C,G)
    Lo que hay despues de un espejismo,es la sed al veneno mas fuerte;
    que el paladar de la vida lo enbriaga y lo divierte.
    Y en el frio de aquel invierno,le quedaba una cita pendiente,
    E                                   C         G       B
    alla por el barrio de Lugano,jamas volvere a verte.
    
    
  • Em
    La vieja palabra destino
    C                          G
    quiso sorprender a su suerte
    Em
    le cruzó en medio del camino
    C                     G
    la sonrisa de la muerte.
    Em
    Bellos dientes para una sonrisa, dijo,
    C                        G
    pero no para volver a verte
    Em
    si el destino lo tiene planeado
    C                     G   B5*
    echada estaba su suerte.
    
    Em-B5-C5-G5-A5-A#5
    
    Em
    
  • 1er solo: Escuchen la cancion y saquenlo de a poco.
    
    
    b:  estirada
    bv: estirada con vibrato
    v:  vibrato
    p:  ligado descendente
    h:  ligado ascendente
    hr: armonico
    /:  deslizar
    
    
    
    E||-----------------------------------------------|------
    B||--12-12-12---9--12--9--12----------------------|------
    G||--12-12-12---9--12--9--12---14b-14--12-14-14bv-|--14--
    D||-----------------------------------------------|------
    A||-----------------------------------------------|------
    E||-----------------------------------------------|------
    
    
    ---------------------------------------------------------
    ----------------------------------------------------15b--
    -12--11-12p11------------------12--14--14b--14bp12-------
    --------------12--14---12--14----------------------------
    ---------------------------------------------------------
    ---------------------------------------------------------
    
    
    ------|--------------------------------------------------
    -15bv-|-12-15-17-17-15-17-17-15-17-17-17bp15-17-15-15-15-
    ------
  •    Estiradas>>                B
       Estirar y bajar>>>         ba
       Slide>>>                   s
       Sonidos armónicos>>>       <>
       Ligados ascendentes>       h
       Ligados descendentes>      p
       Se mantiene la estirada>   /
    
    
                                                                                       3/4
    A  --3-3-3-3-0-3-3-0-3----5ba-3p5--5baP3-5ba----3---2h3p2--------------------------10-10b-------
    B  --3-3-3-3-0-3-3-0-3-------------------------------------3---3s5-----8-10-10baP8--------------
    G  ----------------------------------------------------------------7s9--------------------------
    D  ---------------------------------------------------------------------------------------------
    A  ---------------------------------------------------------------------------------------------
    E  ---------------------------------------------------------------------------------------------
                                               1 y 1/2
    E  --------10-12--12-10-12-12-10-12-----12-12baP10-12-12p10----10---12--10----------------------
    B  --10-12--------------------------------------------------12----------------------------------
    G  ---------------------------------------------------------------------------------------------
    
  •    Estiradas>>                B
       Estirar y bajar>>>         ba
       Slide>>>                   s
       Sonidos armónicos>>>       <>
       Ligados ascendentes>       h
       Ligados descendentes>      p
       Se mantiene la estirada>   /
    
    
        SEGUNDO SOLO DE GUITARRA                                                                            
    E  ----------------------------------------10b-10b-10b-10b-10ba-------------------
    B  ----10b-10b-10b-10b-10b-10b-10b-10b-10b----------------------------------------
    G  --9----------------------------------------------------------------------------
    D  -------------------------------------------------------------------------------
    A  -------------------------------------------------------------------------------
    E  -------------------------------------------------------------------------------
              *                                                            **
    E  --12b-12b-12b-12b-12ba-15b-15b-15ba-12-------15h17-17b-17b-17ba-15-17-17ba-15--
    B  ---------------------------------------15s17-----------------------------------
    G  -------------------------------------------------------------------------------
    
  • e---------------------------------------------------------------------------------------------------------
    b--12-------12-------12--------12--12-------12-----------------------------------------------------
    g--12-------12-------12--------12--12-------12----14’(16)--14--12--14—14’(16)—14’(16)-
    D------14-------14-------14-------------14-----------------------------------------------------------
    A--------------------------------------------------------------------------------------------------------
    E--------------------------------------------------------------------------------------------------------
    
    e---------------------------------------------------------------------------------------------------------
    b--------------------------------------------------------------------------------------------------------
    g---14--12--14—14’(16) 14’(16)--14--12--11--12--11----------------------12--14—14’(16)
    D----------------------------------------------------------------12--14
  • |--------------------------------------------------------|
    |-12-12-12-----------------12p10-------------------------|
    |-12-12-12---9-9-12--9-12---------12-14-14b-14rp12-14----|
    |--------------------------------------------------------|
    |--------------------------------------------------------|
    |--------------------------------------------------------|
    
    |---------------------------------|
    |---------------------------------|
    |-12p14r12/11-11h12p11------------|
    |----------------------12-12-14---|
    |---------------------------------|
    |---------------------------------|
    
    |---------------------------------|
    |------------------------15-15b---|
    |-------12-14-14b-14rp12----------|
    |-12-14---------------------------|
    |---------------------------------|
    |---------------------------------|
    
  • +
    ¡Colabora con nosotros!
    Envíanos tu versión de esta canción

Letra de El twist del pibe
La vieja palabra destino,quiso sorprender a su suerte,
le cruzo en medio del camino,la sonrisa de la muerte;
bellos dientes para una sonrisa dijo,pero no para volver a
verte,
si el destino lo tiene planeado,echada estaba su suerte...
SAXO (E-B-C-G-B-C)
(con E5,C,G)
Lo que hay despues de un espejismo,es la sed al veneno mas fuerte;
que el paladar de la vida lo enbriaga y lo divierte.
Y en el frio de aquel invierno,le quedaba una cita pendiente,
alla por el barrio de Lugano,jamas volvere a verte.
SAXO (E-B-C-G-B-C)
(con E5,C,G)
Sera el intento a buscar,lo que valore de tu vida.Buscar termina en
encontrar,pero como saber si tuvo lo que queria.
Asi como volver a empezar,todo termina de repente,
pero no me digas adios,solo decime hasta siempre...
(sin acordes):
Lla vieja palabra destino quizo sorprender a su suerte,
le cruzo en medio del camino,la sonrisa de la muerte...
Bellos dientes para una sonrisa dijo,pero no para volver a
verte;si el destino lo tiene planeado,echada estaba su
suerte...




[El twist del pibe chords][El twist del pibe cifra]
© LaCuerda.net · aviso legal · privacidad · es · en · pt · contacto