Tablatura para Guitarra de la Renga: El twist del pibe
Conexión · Inscripción
Letras y Acordes
Pantalla Completa
Imprimir
Versión Texto
Añadir Favorito
Otras Versiones

Mostrar Diagramas
Desfile Automático
Manipular Acordes
Formato del Texto


la Renga
El twist del pibe(TAB)
calidad:
reng0236
AUTOR: Gustavo F. Nápoli
ALBUM: Insorportablemente Vivo (98)
Enviado por Santiago
SAQUE EL SOLO DEL TWIST DEL PIBE... ABAJO TAMBIEN PONGO
LA LETRA Y LOS ACORDES, Q ESTAN BIEN LOS SAQUE DEL
TAB DE : Andres Galimor@powernet.com.ar -

CUALQUIER COSA.... SANTI_BRC@HOTMAIL.COM - AVISENME SI SUENA BIEN!


|--------------------------------------------------------|
|-12-12-12-----------------12p10-------------------------|
|-12-12-12---9-9-12--9-12---------12-14-14b-14rp12-14----|
|--------------------------------------------------------|
|--------------------------------------------------------|
|--------------------------------------------------------|

|---------------------------------|
|---------------------------------|
|-12p14r12/11-11h12p11------------|
|----------------------12-12-14---|
|---------------------------------|
|---------------------------------|

|---------------------------------|
|------------------------15-15b---|
|-------12-14-14b-14rp12----------|
|-12-14---------------------------|
|---------------------------------|
|---------------------------------|

|-------------------------------------------------------------|
|-15br-17-15-17b-15-17b-15-17b-17r-17-15-17-17--15-15--17-15--|
|-------------------------------------------------------------|
|-------------------------------------------------------------|
|-------------------------------------------------------------|
|-------------------------------------------------------------|

|---------------------------|
|-12-13--15-15-13-12h13p12--|
|---------------------------|
|---------------------------|
|---------------------------|
|---------------------------|

|-----------------------------------|
|-12h13p12--------------------------|
|----------14-12-14b---14p12-12/14b-|
|-----------------------------------|
|-----------------------------------|
|-----------------------------------|



INTRO:  1: x
        2: 4
        3: 4
        4: 2
        5: 2
        6: x

(arpegiado)
E C G La vieja palabra destino,quiso sorprender a su suerte,
E C G le cruzo en medio del camino,la sonrisa de la muerte;
E C bellos dientes para una sonrisa dijo,pero no para volver a
G verte,
E C G B si el destino lo tiene planeado,echada estaba su suerte...
E-C-G-B (con E5,C,G) Lo que hay despues de un espejismo,es la sed al veneno mas fuerte; que el paladar de la vida lo enbriaga y lo divierte. Y en el frio de aquel invierno,le quedaba una cita pendiente,
E C G B alla por el barrio de Lugano,jamas volvere a verte.
E-C-G-B (con E5,C,G) Sera el intento a buscar,lo que valore de tu vida.Buscar termina en encontrar,pero como saber si tuvo lo que queria. Asi como volver a empezar,todo termina de repente,
E C G B pero no me digas adios,solo decime hasta siempre... SOLO (sin acordes): Lla vieja palabra destino quizo sorprender a su suerte, le cruzo en medio del camino,la sonrisa de la muerte...
E C Bellos dientes para una sonrisa dijo,pero no para volver a
G E C verte;si el destino lo tiene planeado,echada estaba su
G B suerte...
FINAL: E-C-G-B-.
Este fichero es trabajo propio de su transcriptor y representa su interpretación personal de la canción. El material contenido en esta página es
para exclusivo uso privado, por lo que se prohibe su reproducción o retransmisión, así como su uso para fines comerciales.
© LaCuerda.net · Aviso Legal · Privacidad