Tablatura para Guitarra de la Renga: El twist del pibe
Conexión · Inscripción
Letras y Acordes
Pantalla Completa
Imprimir
Versión Texto
Añadir Favorito
Otras Versiones

Mostrar Diagramas
Desfile Automático
Manipular Acordes
Formato del Texto


la Renga
El twist del pibe(TAB)
calidad:
reng0232
AUTOR: Gustavo F. Nápoli
ALBUM: Insorportablemente Vivo (98)
Enviado por Guillermo
1er solo: Escuchen la cancion y saquenlo de a poco.


b:  estirada
bv: estirada con vibrato
v:  vibrato
p:  ligado descendente
h:  ligado ascendente
hr: armonico
/:  deslizar



E||-----------------------------------------------|------
B||--12-12-12---9--12--9--12----------------------|------
G||--12-12-12---9--12--9--12---14b-14--12-14-14bv-|--14--
D||-----------------------------------------------|------
A||-----------------------------------------------|------
E||-----------------------------------------------|------


---------------------------------------------------------
----------------------------------------------------15b--
-12--11-12p11------------------12--14--14b--14bp12-------
--------------12--14---12--14----------------------------
---------------------------------------------------------
---------------------------------------------------------


------|--------------------------------------------------
-15bv-|-12-15-17-17-15-17-17-15-17-17-17bp15-17-15-15-15-
------|--------------------------------------------------
------|--------------------------------------------------
------|--------------------------------------------------
------|--------------------------------------------------


-------|-------------------------------------------------
-17-15-|-/12-13-15-13-12-13-12----12---12-12-12-13p12----
-------|----------------------14----------------------14-
-------|-------------------------------------------------
-------|-------------------------------------------------
-------|-------------------------------------------------


--------------------------|
--------------------------|
--12-14b-14bp12--14b-14bv-|
--------------------------|
--------------------------|
--------------------------|


El solo suena igual, despues denle un toque chizo y queda ;)
Saludos!!!
Shagui.
Este fichero es trabajo propio de su transcriptor y representa su interpretación personal de la canción. El material contenido en esta página es
para exclusivo uso privado, por lo que se prohibe su reproducción o retransmisión, así como su uso para fines comerciales.
© LaCuerda.net · Aviso Legal · Privacidad