Tablatura para Bajo de Patricio Rey y sus Redonditos de Ricota: Tarea Fina
Conexión · Inscripción
Letras y Acordes
Pantalla Completa
Imprimir
Versión Texto
Añadir Favorito
Otras Versiones

Mostrar Diagramas
Desfile Automático
Formato del Texto


Tarea Fina(BAJ)

Patricio Rey y sus Redonditos de Ricota

calidad:
redo0852
AUTOR: Solari Beilinson
ALBUM: La Mosca y la Sopa
Enviado por Sebastián
Intro:
G|--------------|x4 |--------------|x2
D|---2-----2----|   |--------------|
A|-3---3-3---3--|   |---4-----4----|
E|--------------|   |-5---5-5---5--|

Verso: **2 VECES**
G|-------------|x8 |-------------|x4
D|---2-----2---|   |-------------|
A|-3---3-3---3-|   |---4-----4---|
E|-------------|   |-5---5-5---5-|

 |-------------|x2 |-------------|x2
 |-------------|   |-------------|
 |---0-----0---|   |---2-----2---|
 |-1---1-1---1-|   |-3---3-3---3-|

Coro:
G|--------------------------------|
D|--------------------------------|
A|-1-111-11-111-1-----------------|
E|----------------1-111-11-111-1--|

 |--------------------------------|
 |--------------------------------|
 |-3-333-33-333-3-1-111-11-111-1--|
 |--------------------------------|

 |--------------------------------|
 |--------------------------------|
 |--------------------------------|
 |-3-333-33-333-3-1-111-11-111-1--|

 |--------------------------------|
 |--------------------------------|
 |-3-333-33-333-3-1-111-11-111-1--|
 |--------------------------------|

Puente:
G|-------------|x4 |-------------|x2
D|---2-----2---|   |-------------|
A|-3---3-3---3-|   |---4-----4---|
E|-------------|   |-5---5-5---5-|

 |-------------|x2
 |-------------|
 |---2-----2---|
 |-3---3-3---3-|

Verso: **1 VEZ**
G|-------------|x8 |-------------|x4
D|---2-----2---|   |-------------|
A|-3---3-3---3-|   |---4-----4---|
E|-------------|   |-5---5-5---5-|

 |-------------|x2 |-------------|x2
 |-------------|   |-------------|
 |---0-----0---|   |---2-----2---|
 |-1---1-1---1-|   |-3---3-3---3-|

Coro:
G|--------------------------------|
D|--------------------------------|
A|-1-111-11-111-1-----------------|
E|----------------1-111-11-111-1--|

 |--------------------------------|
 |--------------------------------|
 |-3-333-33-333-3-1-111-11-111-1--|
 |--------------------------------|

 |--------------------------------|
 |--------------------------------|
 |--------------------------------|
 |-3-333-33-333-3-1-111-11-111-1--|

 |--------------------------------|
 |--------------------------------|
 |-3-333-33-333-3-1-111-11-111-1--|
 |--------------------------------|

Final:
G|-------------|x6
D|-2--2--------|
A|------3-3-3--|
E|-------------|

Escucha la canción para saber los ritmos.
Este fichero es trabajo propio de su transcriptor y representa su interpretación personal de la canción. El material contenido en esta página es
para exclusivo uso privado, por lo que se prohibe su reproducción o retransmisión, así como su uso para fines comerciales.

© LaCuerda.net · Aviso Legal · Privacidad