Tablatura para Bajo de Patricio Rey y sus Redonditos de Ricota: Tarea Fina
Conexión · Inscripción
Letras y Acordes
Pantalla Completa
Imprimir
Versión Texto
Añadir Favorito
Otras Versiones

Mostrar Diagramas
Desfile Automático
Formato del Texto


Tarea Fina(BAJ)

Patricio Rey y sus Redonditos de Ricota

calidad:
redo0855
AUTOR: Solari Beilinson
ALBUM: La Mosca y la Sopa
Enviado por mariano
Este es tab muy completo de este temazo
y esta muy bien sacado

Intro 
|----------------|----------------|----------------|----------------|
|----------------|----------------|----------------|----------------|
|3-----3---------|3-----3---------|3-----3---------|3-----3---------|
|--5-3-----5-3-5-|--5-3-----5-3-5-|--5-3-----5-3-5-|--5-3-----5-3-5-|
  
|----------------|----------------|----------------|----------------|
|----------------|----------------|----------------|----------------|
|----------------|----------------|----------------|----------------|
|5-3-0-5---3-0-3-|5-3-0-5---3-0-3-|5-3-0-5---3-0-3-|3---3---3-------|

Verso
|----------------|----------------|----------------|----------------|
|----------------|----------------|----------------|----------------|
|3-----3---------|3-----3---------|3-----3---------|3-----3---------|
|--5-3-----5-3-5-|--5-3-----5-3-5-|--5-3-----5-3-5-|--5-3-----5-3-5-|

|----------------|----------------|----------------|----------------|
|----------------|----------------|----------------|----------------|
|3-----3---------|3-----3---------|3-----3---------|3-----3---------|
|--5-3-----5-3-5-|--5-3-----5-3-5-|--5-3-----5-3-5-|--5-3-----5-3-5-|

|----------------|----------------|----------------|----------------|
|----------------|----------------|----------------|----------------|
|----------------|----------------|----------------|----------------|
|5-3-0-5---3-0-3-|5-3-0-5---3-0-3-|5-3-0-5---3-0-3-|5-3-0-5---3-0-3-|

|----------------|----------------|----------------|----------------|
|----------------|----------------|----------------|----------------|
|----------------|----------------|----------------|----------------|
|5-3-0-5---3-0-3-|5-3-0-5---3-0-3-|5-3-0-5---3-0-3-|3---3---3-------|

|----------------|----------------|----------------|----------------|
|----------------|----------------|----------------|----------------|
|3-----3---------|3-----3---------|3-----3---------|3-----3-----5-7-|
|--5-3-----5-3-5-|--5-3-----5-3-5-|--5-3-----5-3-5-|--5-3-----5-----|

|----------------|----------------|----------------|----------------|
|----------------|----------------|----------------|----------------|
|3-----3---------|3-----3---------|3-----3---------|3-----3---------|
|--5-3-----5-3-5-|--5-3-----5-3-5-|--5-3-----5-3-5-|--5-3-----5-3-5-|

|----------------|----------------|----------------|----------------|
|----------------|----------------|----------------|----------------|
|----------------|----------------|----------------|----------------|
|5-3-0-5---3-0-3-|5-3-0-5---3-0-3-|5-3-0-5---3-0-3-|5-3-0-5---3-0-3-|

|----------------|----------------|----------------|----------------|
|----------------|----------------|----------------|----------------|
|----------------|----------------|----------------|----------------|
|5-3-0-5---3-0-3-|5-3-0-5---3-0-3-|5-3-0-5---3-0-3-|3---3---3-------|

Estribillo
|----------------|----------------|----------------|----------------|
|----------------|----------------|3------3-3------|3------3-3------|
|1------1-1------|1------1-1------|----------------|----------------|
|----------------|----------------|----------------|----------------|

|----------------|----------------|----------------|----------------|
|----------------|----------------|----------------|----------------|
|3------3-3------|3------3-3------|1------1-1------|1------1-1------|
|----------------|----------------|----------------|----------------|

|----------------|----------------|----------------|----------------|
|5-----5-5-------|5------5-5------|3------3-3------|3------3-3------|
|----------------|----------------|----------------|----------------|
|----------------|----------------|----------------|----------------|

|----------------|----------------|----------------|----------------|
|----------------|----------------|----------------|5-5---5-5-5-----|
|3------3-3------|3------3-3------|1------1-1------|----------------|
|----------------|----------------|----------------|----------------|

Solo 
|----------------|----------------|----------------|----------------|
|----------------|----------------|----------------|----------------|
|3-----3---------|3-----3---------|----------------|----------------|
|--5-3-----5-3-5-|--5-3-----5-3-5-|5-3-0-5---3-0-3-|5-3-0-5---3-0-3-|

|----------------|----------------|----------------|----------------|
|----------------|----------------|----------------|----------------|
|3-----3---------|3-----3---------|----------------|----------------|
|--5-3-----5-3-5-|--5-3-----5-3-5-|5-3-0-5---3-0-3-|5-3-0-5---3-0-3-|

|----------------|----------------|----------------|----------------|
|----------------|5---5---5---5---|3---------------|3---3---3---3---|
|----------------|----------------|----------------|----------------|
|3---------------|----------------|----------------|----------------|

Verso
|----------------|----------------|----------------|----------------|
|----------------|----------------|----------------|----------------|
|3-----3---------|3-----3---------|3-----3---------|3-----3-----5-7-|
|--5-3-----5-3-5-|--5-3-----5-3-5-|--5-3-----5-3-5-|--5-3-----5-----|

|----------------|----------------|----------------|----------------|
|----------------|----------------|----------------|----------------|
|3-----3---------|3-----3---------|3-----3---------|3-----3---------|
|--5-3-----5-3-5-|--5-3-----5-3-5-|--5-3-----5-3-5-|--5-3-----5-3-5-|

|----------------|----------------|----------------|----------------|
|----------------|----------------|----------------|----------------|
|----------------|----------------|----------------|----------------|
|5-3-0-5---3-0-3-|5-3-0-5---3-0-3-|5-3-0-5---3-0-3-|5-3-0-5---3-0-3-|

|----------------|----------------|----------------|----------------|
|----------------|----------------|----------------|----------------|
|----------------|----------------|----------------|----------------|
|5-3-0-5---3-0-3-|5-3-0-5---3-0-3-|5-3-0-5---3-0-3-|3---3---3-------|

Estribillo
|----------------|----------------|----------------|----------------|
|----------------|----------------|3------3-3------|3------3-3------|
|1------1-1------|1------1-1------|----------------|----------------|
|----------------|----------------|----------------|----------------|

|----------------|----------------|----------------|----------------|
|----------------|----------------|----------------|----------------|
|3------3-3------|3------3-3------|1------1-1------|1------1-1------|
|----------------|----------------|----------------|----------------|

|----------------|----------------|----------------|----------------|
|5-----5-5-------|5------5-5------|3------3-3------|3------3-3------|
|----------------|----------------|----------------|----------------|
|----------------|----------------|----------------|----------------|

|----------------|----------------|----------------|----------------|
|----------------|----------------|----------------|5-5---5-5-5-----|
|3------3-3------|3------3-3------|1------1-1------|----------------|
|----------------|----------------|----------------|----------------|

Final
|----------------|----------------|----------------|----------------|
|------------7-5-|3-----------5-7-|------------5-7-|3-----------5-7-|
|----------------|----------------|----------------|----------------|
|5---------------|----------------|5---------------|----------------|

|----------------|----------------|----------------|----------------|
|------------7-5-|3---------------|----------------|----------------|
|----------------|----------------|----------------|----------------|
|5---------------|----------------|3---------1-1-1-|3---------1-1-1-|

|----------------|----------------|---------------------------------|
|----------------|----------------|---------------------------------|
|----------------|----------------|---------------------------------|
|3---------1-1-1-|3---------------|5--------------------------------|
Este fichero es trabajo propio de su transcriptor y representa su interpretación personal de la canción. El material contenido en esta página es
para exclusivo uso privado, por lo que se prohibe su reproducción o retransmisión, así como su uso para fines comerciales.
© LaCuerda.net · Aviso Legal · Privacidad