Acordes de Guitarra » P »Patricio Rey y sus Redonditos de Ricota » Rock para el Negro Atila (Tab)
  • Letra y Acordes
       A                          E
    Quiero verte huir como un ladrón,
    A                        E
    al que nunca pueden atrapar.
           D           Dsus4 D
    Y apretar el tu bolsillo, 
     D                              A
    todo el metálico brillo, sin temor.
    
    Quiero verte oler como el ratón, 
    el peligro del gato matón.
    Que ha cambiado la sirena,
    y compró matraca nueva, de ocasión.
    
    (Solo)
    
    Quiero verte hundido en tu gabán, 
    masticando el frío marginal.
    Y además de todo verte, 
    lunático, blanco y presa de mi amor.
    
  • Tablatura
                MI                                   MI
    e|---------------------------------------|------------------------------|
    B|---------------------------------------|------------------------------|
    G|---------------------------------------|------------------------------|X4
    D|-----------------------------9--7--9-9-|----------------------7--9-9--|
    A|---2-------------------------7--5--7-7-|----------------------5--7-7--|
    E|---0--0-0-0-0-0-0-0-0--0-0---0-----0-0-|-0-0-0-0-0-0-0-0--0-0----0-0--|
            PM.............  ...               ...............  ...
    
    BAJO        MI                                   MI
    G|---------------------------------------|------------------------------|
    D|---------------------------------------|------------------------------|
    A|-----------------------------7--5--7-7-|----------------------5--7-7--|x4
    E|---0--0-0-0-0-0-0-0-0--0-0-------------|-0-0-0-0-0-0-0-0--0-0---------|
    
    sigue asi...
    
    guitarra:   MI                 LA                          MI (con punteo)
    e|-----------------------|----------------------------|-------------------------------|-------
    B|-----------------------|----------------------------|-------------------------------|-------
    
  • Tablatura
    Intro: MI [ Riff - Dm Dsus4-D - D]
    
    Riff 
     
            LA                      MI  
    e|-----------------------|-----------------------|
    B|-----------------------|-----------------------|
    G|-----------------------|-----------------------|X2
    D|-----------------------|-------7-6--7-6--7-6---|
    A|-------5-4--5-4--5-4-5-|-7-7-7----7----7-----7-|
    E|-5-5-5----5----5-------|-----------------------|
    
    
    
     Riff                          
    Quiero verte huir como un ladrón
    
    Al que nunca pueden atrapar
    D                           Dsus4-D
      Y apretar en tu bolsillo
    
  • Tablatura
    D|--9-9----------9-7-9-9-----------|
    A|--7-7--2(x8)---7-5-7-7----2(x8)--|
    E|-------0------------------0------|
    
    Riff 1a
    A|--7-7-7--5-4--5-4--5-4-5-7--|
    E|--5-5-5-----5----5----------|
    
    Riff 1b
    D|--9-9-9--7-6--7-6--7-6---|
    A|--7-7-7-----7----7----7--|
    
    Riff 1c
    G|--------7-6--7-6--7-6---|
    D|-----------7----7----7--|
    A|--7-7-7-----------------|
    E|--5-5-5-----------------|
    
    Riff 2
    E|--2--3-2-----|
    
  • Tab p/Bajo
    Intro
    G|------------------------|x8
    D|------------------------|
    A|-77777777777777-7\6/7---|
    E|------------------------|
    
     |---------------------------|---------|x2
     |-000-5-4-0--5-4-0-5-4-55-7-|---------|
     |---------------------------|-7(x12)--|
     |---------------------------|---------|
    
     |--------------------------------------|
     |----------4----------4---5---7--------|
     |-5(x13)-7---5(x13)-5---5---5---5-7-5--|
     |--------------------------------------|
    
    Verso **2VECES**
    G|---------------------------|---------|x2
    D|-000-5-4-0--5-4-0-5-4-55-7-|---------|
    A|---------------------------|-7(x12)--|
    E|---------------------------|---------|
    
     |--------------------------------------|
     |----------4----------4---5---7--------|
     |-5(x13)-7---5(x13)-5---5---5---5-7-5--|
     |--------------------------------------|
    
    Pre-Solo de Saxo
    G|---------------------------|---------|
    D|-000-5-4-0--5-4-0-5-4-55-7-|---------|
    A|---------------------------|-7(x12)--|
    E|-----------------
  • +
    ¡Colabora con nosotros!
    Envíanos tu versión de esta canción
  • Tutorial
    Como tocar Rock para el negro Atila de Los redonditos de ricota (tutarras.com.ar)
    13:12
  • Tutorial
    HD
    Explicado - Como tocar "Rock para el negro Atila" de Los Redondos en el bajo tutorial#172
    16:09

Letra de Rock para el Negro Atila
Quiero verte huir como un ladrón,
al que nunca pueden atrapar.
Y apretar el tu bolsillo,
todo el metálico brillo, sin temor.
Quiero verte oler como el ratón,
el peligro del gato matón.
Que ha cambiado la sirena,
y compró matraca nueva, de ocasión.
Quiero verte hundido en tu gabán,
masticando el frío marginal.
Y además de todo verte,
lunático, blanco y presa de mi amor.
Acordes:
Aguanten los Redondos!



© LaCuerda.net · aviso legal · privacidad · contacto