Tablatura para Bajo de Patricio Rey y sus Redonditos de Ricota: Rock para el Negro Atila
Conexión · Inscripción
Letras y Acordes
Pantalla Completa
Imprimir
Versión Texto
Añadir Favorito
Otras Versiones

Mostrar Diagramas
Desfile Automático
Formato del Texto


Rock para el Negro Atila(BAJ)

Patricio Rey y sus Redonditos de Ricota

calidad:
redo0713
AUTOR: Patricio Rey y sus Redonditos de Ricota
ALBUM: Lobo suelto, cordero atado (1993)
Enviado por Sebastián
Intro
G|------------------------|x8
D|------------------------|
A|-77777777777777-7\6/7---|
E|------------------------|

 |---------------------------|---------|x2
 |-000-5-4-0--5-4-0-5-4-55-7-|---------|
 |---------------------------|-7(x12)--|
 |---------------------------|---------|

 |--------------------------------------|
 |----------4----------4---5---7--------|
 |-5(x13)-7---5(x13)-5---5---5---5-7-5--|
 |--------------------------------------|

Verso **2VECES**
G|---------------------------|---------|x2
D|-000-5-4-0--5-4-0-5-4-55-7-|---------|
A|---------------------------|-7(x12)--|
E|---------------------------|---------|

 |--------------------------------------|
 |----------4----------4---5---7--------|
 |-5(x13)-7---5(x13)-5---5---5---5-7-5--|
 |--------------------------------------|

Pre-Solo de Saxo
G|---------------------------|---------|
D|-000-5-4-0--5-4-0-5-4-55-7-|---------|
A|---------------------------|-7(x12)--|
E|---------------------------|---------|

Solo de Saxo
G|---------------------------------|
D|---------------------------------|
A|---------5555555-222222222222222-|
E|-5555555-------------------------|

 |---------------------------------|
 |---------------------------------|
 |-7777777---------777777777777777-|
 |---------5555555-----------------|
 
 |---------------------------------|
 |---------------------------------|
 |-5555555---------777777777777777-|
 |---------5555555-----------------|

 |--------------------|
 |--------------------|
 |-5555555---------77-|
 |---------5555555----|

 |--------------------|
 |--------------------|
 |-77------77------77-|
 |--------------------|

Verso **2VECES**
G|---------------------------|---------|x2
D|-000-5-4-0--5-4-0-5-4-55-7-|---------|
A|---------------------------|-7(x12)--|
E|---------------------------|---------|

 |-----------------------------------------|
 |------------------------4---5---7--------|
 |-5(x13)-5/12\5-5(x13)-5---5---5---5-7-5--|
 |-----------------------------------------|

Pre-Solo de Saxo
G|---------------------------|---------|
D|-000-5-4-0--5-4-0-5-4-55-7-|---------|
A|---------------------------|-7(x12)--|
E|---------------------------|---------|

2º Solo de Saxo
G|---------------------------------|
D|---------------------------------|
A|---------5555555-222222222222222-|
E|-5555555-------------------------|

 |---------------------------------|
 |---------------------------------|
 |-7777777---------777777777777777-|
 |---------5555555-----------------|
 
 |---------------------------------|
 |---------------------------------|
 |---------5555555-222222222222222-|
 |-5555555-------------------------|

 |---------------------------------|
 |---------------------------------|
 |-7777777---------777777777777777-|
 |---------5555555-----------------|

 |---------------------------------|
 |---------------------------------|
 |-5555555---------777777777777777-|
 |---------5555555-----------------|

 |--------------------|
 |--------------------|
 |-5555555---------77-|
 |---------5555555----|

 |--------------------|
 |--------------------|
 |-777777777777777777-|
 |--------------------|

 |---------------------------------|
 |---------------------------------|
 |-5555555----------77777777777777-|
 |---------55555555----------------|

 |---------------------------------------|
 |---------------------------------------|
 |-5555555----------7-7-7-7-7---7------7-|
 |---------55555555----5-5-5-5----55-----|

Escuchá la canción para saber el ritmo
Este fichero es trabajo propio de su transcriptor y representa su interpretación personal de la canción. El material contenido en esta página es
para exclusivo uso privado, por lo que se prohibe su reproducción o retransmisión, así como su uso para fines comerciales.

© LaCuerda.net · Aviso Legal · Privacidad