Acordes de Guitarra » P »Patricio Rey y sus Redonditos de Ricota » La hija del fletero (Tab)
  • Letra y Acordes
    Intro: Cm Fm (x8)
    
    Am        Am/G         Am         Asus4
    La hija del fletero, linda infinita
    Am         Am/G          Am            Asus4
    volvio a Madrid donde parece que es feliz
    Am    Am/G     Am        Asus4
    ese dia me mando al descenso
    Am        Am/G      Am        Asus4
    recuerdo como su mirada me volteo
    
    Estribillo:
    G               F            G               F
    Pero dos que se quieren se dicen cualquier cosa
    G            F        G           F
    ay! si pudieras recordar sin rencor
    
    
    En mi buzon hay un par de cartas suyas
    fueron juntandose y no tengo el valor...
    
  • Letra y Acordes
           E A D G B E
    Am:    x 0 2 2 1 0
    Asus4: x 0 2 2 3 0
    G:     3 2 0 0 0 3
    F9:    x x 3 2 1 3
    G#:    4 6 6 5 4 4
    
    Base: Am Asus4
    
    La hija del fletero, linda infinita, 
    volvió a Madrid donde parece que es feliz.
    Ese día me mandó al descenso, 
    recuerdo cómo su mirada me volteó.
    
    G                  F9             G         F9
    Pero dos que se quieren se dicen cualquier cosa.
    G          F9      G             G#
    Ay! Si pudieras recordar sin rencor.
    
    En mi buzón hay un par de cartas suyas, 
    
  • Tablatura
    Nota: envío el solo que era lo único que le faltaba al a excelente
    versión de GUILLE. Importante ponerle buen feeling al punteo.
    **********************************************************************
    
    e|----------------------|-------------------------------|
    B|-----------------9^~~-|-x-9------------7--------------|
    G|------7----------9^~~-|-x-9h10p9-9p7---7--------------|
    D|--7h9---9-9-9-7-------|--------------9---9~-----------|
    A|----------------------|---------------------7-5-5/9~--|
    E|----------------------|-------------------------------|
    
    e|-------------10-10-10-10-----------------|---------------------|
    B|-----7-7-7-7-10-10-10-10-7-9-9^----------|---------------------|
    G|-----7-7-7-7-------------7-9-9^p7---7----|---------------------|
    D|--/9------------------------------9---9--|-----------------4~--|
    A|-----------------------------------------|--7-5h7p5~-----------|
    E|-----------------------------------------|-----------7-5-7-----|
    
    e|----------------------------------|-----5~
  • Tablatura
       DOm          FAsus 2
    e|-----3--|-3-3--3-3--3-3--3-3-|-----|--------|-----|--------|-----|--------||
    B|-----4--|-6-6--6-6--6-6--6-6-|-----|--------|-----|--------|-----|--------||
    G|-(5)-5--|-5-5--5-5--5-5--5-5-|-DOm-|-FAsus2-|-DOm-|-FAsus2-|-DOm-|-FAsus2-|| X2
    D|-(5)----|-3-3--3-3--3-3--3-3-|-----|--------|-----|--------|-----|--------||
    A|-(3)----|--------------------|-----|--------|-----|--------|-----|--------||
    E|--------|--------------------|-----|--------|-----|--------|-----|--------||
    
    BAJO: (entra en la segunda vuelta)
    
    G|--------|--------------------|-----|--------|-----|--------|-----|--------||
    D|--------|--------------------|-----|--------|-----|--------|-----|--------||
    A|--(3)---|--------%-----------|-----|---%----|-(3)-|---%----|-----|---%----||X1
    E|--------|--------------------|5/(8)|--------|-----|--------|5/(8)|--------||
       DOm                           DOm            DOm            DOm  
    
    VERSO1: (creo q´es algo asi)
    
    LAm      LAm/SOL               LAsus4
    La hija del fletero, linda infinita
    
  • Tab p/Bajo
    Buenas.
    Voy a dejar esta tab que a mi parecer suena mucho más similar a la canción.
    Ojalá les sirva!
    
    Acá vamos!
    
    
    INTRO:
    G|------------------------| Del FA al DO vamos rápido.
    D|------------------------| Del DO al MI volvemos lento.
    A|------------------------|
    E|--1/8--------1/8----|
    
    
    VERSO ("la hija del fletero..."): 4 veces.
    G|------------------------|
    D|------------------------|
    A|-----------------5------|
    E|-5-0-3-0-5-0-3-5--5-----|En la 4ta vez omitir el últ. LA
    
    
    ESTRIBILLO ("...pero dos que se quieren..."): 1 vez.
    G|------------------------------------|
    D|-----------0/2----------------------|
    A|--------------3-1-------------------|
    E|-3-3-1-0-3-------3-0-1-0-3-01-03-05-|
    
    
    VERSO ("...en mi buzón..."): 4 veces.
    G|----------------------|
    D|----------------------|
    A|---------------5------|
    E|-0-3-0-5-0-3-5--5-----|En la 4ta vez omitir el últ. LA
    
    
    ESTRIBILLO ("...pero a los ciegos..."): 1 vez
    G|------------------------------------|
    D|-----------0/2----------------------
  • Tab p/Bajo
    Les voy a dejar todo como va,en orden de la cancion.
    
    Intro:En la intro ustedes van a saber cuando
    tiene que hacer el slide del traste
    3 al traste 8 y despues del traste
    8 al 3 tienen que hacer el slide lento.
    
      G|------------------------|
      D|------------------------|
      A|-3s8s3--------3s8s3-----|
      E|------------------------|
    
    Verso:Este verso se hace el mayor tiempo en la cancion.
      G|---------------------------| Se repite 4 veces
      D|---------------------------| hasta el estribillo
      A|----------------------3-5--|
      E|-5-5-0-3-3-0-5-5-0-3-5-----|
    
    Estribillo:El estribillo comienza en la parte que dice "pero dos que
    se quieren".
      G|---------------------------| Se repite 2 veces
      D|---------------------------| hasta el verso,
      A|----------------------1-3--| que repite.
      E|-3-3-0-1-1-0-3-3-0-1-3-----|
    
    Verso:
      G|---------------------------| Se repite 4 veces
      D|---------------------------| hasta el
      A|----------------------3-5--| estribillo.
      E|-5-5-0-3-3-0-5-5-0-3-5-----|
    
    
    
  • +
    ¡Colabora con nosotros!
    Envíanos tu versión de esta canción
  • Tutorial
    La hija del fletero-Cover fácil-como tocar
    3:41

Letra de La hija del fletero
La hija del fletero, linda infinita
volvio a Madrid donde parece que es feliz
ese dia me mando al descenso
recuerdo como su mirada me volteo
Estribillo:
Pero dos que se quieren se dicen cualquier cosa
ay! si pudieras recordar sin rencor
En mi buzon hay un par de cartas suyas
fueron juntandose y no tengo el valor...
todavia su amor me da descargas
(nunca tuvo higo seco junto a mi)
Estribillo:
Pero a los ciegos no les gustan los sordos
y un corazon no se endurece porque si
No calentas la misma cama por dos noches
me reclamaba y no la quise oir
hice de todo por impresionarla
y deje huerfano todo su penar
Pero dos que se quieren se dicen cualquier cosa
ay! si pudieras recordar sin rencor
No me gusto como nos despedimos
dabam sus labios rocio y no bebi
sopa de almejas es todo lo que como
(siempre fui menos que mi reputacion)
Pero a los ciegos no les gustan los sordos
y un corazon no se endurece porque si



© LaCuerda.net · aviso legal · privacidad · contacto