Acordes de Guitarra » P »Patricio Rey y sus Redonditos de Ricota » la Bestia Pop (Tab)
  • Letra y Acordes
    e|----2--2--2--2---0--0---6--7----|
    B|----3--3--3--3---0--0---6--7----|
    G|----4--4--4--4---0--0---6--7----|X4
    D|--------------------------------|
    A|--------------------------------|
    E|--------------------------------|
    
    La intro también suena durante las estrofas,
    menos en el estribillo.
    Pero también pueden hacerse
    los acordes que pongo en la 1ra estrofa.
    
    Bm           Em      F#
    Mi héroe es, la gran bestia pop,
    Bm                    Em   F#
    que enciende en sueños, la vigilia
    Bm                   Em  F#     Bm   Em   F#
    que antes que cuente diez, dormirá.
    
    
    
  • Letra y Acordes
    INTRO: Bm E F#m Bm
    (el último Bm hacerlo como un F#m pero desde el traste 7,
    el la intro y en el resto del tema, excepto estribillo,
    Es decir:
    e: --7--
    B: --7--
    G: --7--
    D: --9--
    A: --9--
    E: --7--
    
    
    
    Bm            E        F#m Bm
    Mi héroe es la gran bestia pop
    Bm                     E        F#m Bm
    Que enciende en sueños la vigilia
    Bm                     E   F#m
    Que antes que cuente diez,dormirá
    
    
  • Tablatura
    intro: SIm   FA#m   MIm  SIb  SIm
    e|----2--2---2--2--0--0--6---7----|
    B|----3--3---2--2--0--0--6---7----|
    G|----4--4---2--2--0--0--6---7----|X4
    D|--------------------------------|
    A|--------------------------------|
    E|--------------------------------|
    
    BAJO:                      
    G|-----|--------------|----------------|---|
    D|-----|--------------|----------4-----|-X2|
    A|-----|-(2)----------|----1-(2)-------|---|
    E|-3-2-|-----2--0-(0)-|--2---------0-0-|---|
    
    
    SAXO:
    e|--2--2--2--2--2--2--0--0--------|
    B|--------------------------------|
    G|--------------------------------|X4
    D|--------------------------------|
    
  • Tablatura
    El sol queda mejor con seguilla en esta cancion (x55433)
    1 guitarra:
         Bm              G
    A brillar mi amor
    F#          Bm              G  F#
    Vamos a brillar, mi amor
        Bm              G
    A brillar MI  amor
     F#      Bm              G  F#
    vamos A brillar   MI amor
    
    y mientras tanto la otra guitarra en el estribillo hace
    un arpegio con los mismos tonos así:
    2 guitarra
            Bm          G         F
    --!---------2--!-------3--!------2--!------
    --!-----3------!-----3----!----2----!------
    --!---4---4----!---4------!--3------!------
    --!-4----------!----------!---------!------
    --!------------!-5--------!4--------!------
    
  • Tab p/Bajo
    bueno la cancion va mas o menos asi..
    no esta perfecta pero safa bastantee!!!!!
    
    
    arranca con un intro de bateria,
    y al cabo de un par de compases, entra el bajo,
     haciendo lo siguiente
    
    
    
    E-3-2---2-0-2------- 0--
    A-----2-------1-2-------
    D------------------4----
    G-----------------------
    
    
    Mi héroe es la gran bestia pop
    Que enciende en sueños la vigilia
    Que antes que cuente diez,dormirá
    
    estribillo
    E---------------3-2-----//
    A--2-2-5-5---5--------//
    D----------4-----------//
    G----------------------//
    
    
    A brillar mi amor
    Vamos a brillar, mi amor
    A brillar mi  amor
    vamos a brillar   mi amor
    
    
    
    Mi amigo está groogie sin destilar
    Pero yo sé que hay caballos que
    Se mueren potros sin galopar
    
    Estribillo:
    
    A brillar mi amor
    Vamos a brillar, mi amor
    A brillar mi  amor
    vamos a brillar   mi amor
    
    en solo de saxo el bajo va mas o menos asi
    
    E---------------------//
    A-2-5-3-----------------//
    D-------4--------------//
    G----------------------//
    
    en el Sólo de viola el baj va como al principio
  • Tab p/Bajo
    La Bestia Pop
    
    Intro:
    E -3-2-|
    a -----|
    d -----|
    g -----|
    
    E ----2--0--3---------0--3-2-|
    a -2----------1-2------------|
    d -----------------4---------|
    g ---------------------------|
    
    Mi héroe es...
    E ----2--0--3---------0--3-2-|
    a -2----------1-2------------|
    d -----------------4---------|
    g ---------------------------|
    
    A brillar mi amor...
    E --------------3---3-2-|
    a -2--2-----------5-----|
    d ------0-0-4-0---------|
    g ----------------------|
    
    Mi amigo está...
    E ----2--0--3---------0--3-2-|
    a -2----------1-2------------|
    d -----------------4---------|
    g ---------------------------|
    
    A brillar mi amor...
    E --------------3---3-2-|
    a -2--2-----------5-----|
    d ------0-0-4-0---------|
    g ----------------------|
    
    (Esta parte va con las trompetas)
    E -----------------------------------------3--2|
    a -2-5-3----2-5-3----2-5-3----2-5-3----2-5-----|
    d -------5--------5--------5--------5----------|
    g ---------------------------------------------|
    
    E ----2--0--3---------0--3-2-| (esto va unas cuan
  • Tab p/Bajo
    Bueno esta version a mi entender suena muy bien y es facil de tocar.
    Espero que les sirva y manden mas tablaturas para bajo de los redondos!
    
    INTRODUCCIÓN
    
    E-3-2-----/
    A--------/
    D-------/
    G------/
    
    
    VERSO 1 (Mi héroe es...)
    
    E---2-0-0-3---------0-0-3-2----/
    A-2---------1-2---------------/
    D---------------4------------/
    G---------------------------/
    
    E---2-0-0-3---------0-0-3-3----/
    A-2---------1-2---------------/
    D---------------4------------/
    G---------------------------/
    
    
    ESTRIBILLO (A brillar mi amor...)
    
    E----------------3-----2--22--/
    A-2--2-5-5---5-----5-5-------/   X4
    D----------4----------------/
    G--------------------------/
    
    
    VERSO 2 (Mi amigo esta...)
    
    E---2-0-0-3---------0-0-3-2----/
    A-2---------1-2---------------/
    D---------------4------------/
    G---------------------------/
    
    E---2-0-0-3---------0-0-3-3----/
    A-2---------1-2---------------/
    D---------------4------------/
    G---------------------------/
    
    
    ESTRIBILLO (A brillar mi amor...)
    
    E----------------3-----2--22--/
    A-2
  • +
    ¡Colabora con nosotros!
    Envíanos tu versión de esta canción
  • Tutorial
    HD
    Explicado - Como tocar "La bestia pop" de Los Redondos en el bajo tutorial#167
    10:45

Letra de la Bestia Pop
La intro también suena durante las estrofas,
menos en el estribillo.
Pero también pueden hacerse
los acordes que pongo en la 1ra estrofa.
Mi héroe es, la gran bestia pop,
que enciende en sueños, la vigilia
que antes que cuente diez, dormirá.
Estribillo:
Mi amigo esta, groggie sin destilar
pero yo se, que hay caballos que
se mueren potros sin galopar.
Estribillo
Voy a bailar, el rock del rico Luna Park
y atomizar la butaca y brillar
como mi héroe "La gran bestia pop"
Estribillo
Mi héroe es, la gran bestia pop
que enciende en sueños, la vigilia
que antes que cuente diez, dormirá.
Estribillo



© LaCuerda.net · aviso legal · privacidad · contacto