Tablatura para Bajo de Patricio Rey y sus Redonditos de Ricota: la Bestia Pop
Conexión · Inscripción
Letras y Acordes
Pantalla Completa
Imprimir
Versión Texto
Añadir Favorito
Otras Versiones

Mostrar Diagramas
Desfile Automático
Formato del Texto


la Bestia Pop(BAJ)

Patricio Rey y sus Redonditos de Ricota

calidad:
redo0397
AUTOR: Solari-beilinson
ALBUM: Gulp! (1985)
Enviado por Ricardo
La Bestia Pop

Intro:
E -3-2-|
a -----|
d -----|
g -----|

E ----2--0--3---------0--3-2-|
a -2----------1-2------------|
d -----------------4---------|
g ---------------------------|

Mi héroe es...
E ----2--0--3---------0--3-2-|
a -2----------1-2------------|
d -----------------4---------|
g ---------------------------|

A brillar mi amor...
E --------------3---3-2-|
a -2--2-----------5-----|
d ------0-0-4-0---------|
g ----------------------|

Mi amigo está...
E ----2--0--3---------0--3-2-|
a -2----------1-2------------|
d -----------------4---------|
g ---------------------------|

A brillar mi amor...
E --------------3---3-2-|
a -2--2-----------5-----|
d ------0-0-4-0---------|
g ----------------------|

(Esta parte va con las trompetas)
E -----------------------------------------3--2|
a -2-5-3----2-5-3----2-5-3----2-5-3----2-5-----|
d -------5--------5--------5--------5----------|
g ---------------------------------------------|

E ----2--0--3---------0--3-2-| (esto va unas cuantas
a -2----------1-2------------|  veces y luego vuelve
d -----------------4---------|  a tocar las trompetas)
g ---------------------------|

E -----------------------------------------3--2-|
a -2-5-3----2-5-3----2-5-3----2-5-3----2-5------|
d -------5--------5--------5--------5-----------|
g ----------------------------------------------|

Voy a bailar...
E ----2--0--3---------0--3-2-|
a -2----------1-2------------|
d -----------------4---------|
g ---------------------------|

A brillar mi amor...
E --------------3---3-2-|
a -2--2-----------5-----|
d ------0-0-4-0---------|
g ----------------------|

Mi héroe es...
E ----2--0--3---------0--3-2-|
a -2----------1-2------------|
d -----------------4---------|
g ---------------------------|

A brillar mi amor...
E --------------3---3-2-|
a -2--2-----------5-----|
d ------0-0-4-0---------|
g ----------------------|

(Termina con esto)
E --------------3---3-2-|
a -2--2-----------5-----|
d ------0-0-4-0---------|
g ----------------------|

E --------------3-2---|
a -2--2-------------2-|
d ------0-0-4-0-------|
g --------------------|

Muchas gracias! Saquen el tema que esta bueno... suerte!
Este fichero es trabajo propio de su transcriptor y representa su interpretación personal de la canción. El material contenido en esta página es
para exclusivo uso privado, por lo que se prohibe su reproducción o retransmisión, así como su uso para fines comerciales.

© LaCuerda.net · Aviso Legal · Privacidad