Tablatura para Bajo de Patricio Rey y sus Redonditos de Ricota: la Bestia Pop
Conexión · Inscripción
Letras y Acordes
Pantalla Completa
Imprimir
Versión Texto
Añadir Favorito
Otras Versiones

Mostrar Diagramas
Desfile Automático
Formato del Texto


la Bestia Pop(BAJ)

Patricio Rey y sus Redonditos de Ricota

calidad:
redo0396
AUTOR: Solari-beilinson
ALBUM: Gulp! (1985)
Enviado por Julián
Bueno esta version a mi entender suena muy bien y es facil de tocar.
Espero que les sirva y manden mas tablaturas para bajo de los redondos!

INTRODUCCIÓN

E-3-2-----/
A--------/
D-------/
G------/


VERSO 1 (Mi héroe es...)

E---2-0-0-3---------0-0-3-2----/
A-2---------1-2---------------/
D---------------4------------/
G---------------------------/

E---2-0-0-3---------0-0-3-3----/
A-2---------1-2---------------/
D---------------4------------/
G---------------------------/


ESTRIBILLO (A brillar mi amor...)

E----------------3-----2--22--/
A-2--2-5-5---5-----5-5-------/   X4
D----------4----------------/
G--------------------------/


VERSO 2 (Mi amigo esta...)

E---2-0-0-3---------0-0-3-2----/
A-2---------1-2---------------/
D---------------4------------/
G---------------------------/

E---2-0-0-3---------0-0-3-3----/
A-2---------1-2---------------/
D---------------4------------/
G---------------------------/


ESTRIBILLO (A brillar mi amor...)

E----------------3-----2--22--/
A-2--2-5-5---5-----5-5-------/   X4
D----------4----------------/
G--------------------------/


SOLO DE SAXO

E---2-0-0-3-3-----/
A-2--------------/
D---------------/
G--------------/


SOLO DE GUITARRA

E---2-0-0-3---------0-0-3-2----/
A-2---------1-2---------------/
D---------------4------------/
G---------------------------/

E---2-0-0-3---------0-0-3-3----/
A-2---------1-2---------------/
D---------------4------------/
G---------------------------/


SOLO DE SAXO

E---2-0-0-3-3-----/
A-2--------------/
D---------------/
G--------------/


VERSO 3 (Voy a bailar...)

E---2-0-0-3---------0-0-3-2----/
A-2---------1-2---------------/
D---------------4------------/
G---------------------------/

E---2-0-0-3---------0-0-3-3----/
A-2---------1-2---------------/
D---------------4------------/
G---------------------------/


ESTRIBILLO (A brillar mi amor...)

E----------------3-----2--22--/
A-2--2-5-5---5-----5-5-------/   x4
D----------4----------------/
G--------------------------/


VERSO 4 (Mi héroe es...)

E---2-0-0-3---------0-0-3-2----/
A-2---------1-2---------------/
D---------------4------------/
G---------------------------/

E---2-0-0-3---------0-0-3-3----/
A-2---------1-2---------------/
D---------------4------------/
G---------------------------/


ESTRIBILLO (A brillar mi amor...)

E----------------3-----2--22--/
A-2--2-5-5---5-----5-5-------/   x4
D----------4----------------/
G--------------------------/


FINAL

E---2-0-0-3-3-----/
A-2--------------/
D---------------/
G--------------/
Este fichero es trabajo propio de su transcriptor y representa su interpretación personal de la canción. El material contenido en esta página es
para exclusivo uso privado, por lo que se prohibe su reproducción o retransmisión, así como su uso para fines comerciales.

© LaCuerda.net · Aviso Legal · Privacidad