Acordes de Guitarra » P »Patricio Rey y sus Redonditos de Ricota » Blues de la artillería (Tab)

Blues de la artillería
Patricio Rey y sus Redonditos de Ricota

Letras, Acordes y Tabs para Guitarra, Bajo y Ukulele

  • B5                        G5    G5-F#5
    Sos es el as del 'club Paris'
    B5                     G5  G5-F#5-E5
    As, lo tuyo no es el rock
                     E5-F#5-G5-F#5-E5  B5
    cierran los bares                 por donde van
    F#5
    tu breto y tus ojos grices.
    
    B5                 G5    G5-F#5
    Yo no soy de aconsejar
    B5                          G5  G5-F#5-E5
    pero estas jodiendo al personal
                     E5-F#5-G5-F#5-E5  B5
    debiste poner en rio               ese restoran
    F#5
    que te quito el sueño el sueño
    
    B5    F#5
         Pero...Cabe todo lo tuyo en una maldita valija?
    
  •                SIm                                         SOL/7              
    Intro: D----4 4----4 4-4 245420-----------------------------------------------
           A---2-------2-----2-----------------------------55---55---5---5-5-4----
           E-----------------------------------------------3----3-----3-----3-3 2-
             
                    MIm          SIm                               FA#7
           D-----------------44--44-4-245420----------------------------
           A---------------2----2---2-----------------------------------
           E----02323---------------------------------------------------
    
           (repite dos veces)
    
    Se puede tocar con la intro el tema.
    
    SIm                         SOL7  FA#7
    Sos el as del club paris
    SIm                         SOL7 FA#7
    As lo tuyo no es el rock
    MIm                                         SIm
    Cierran los bares por donde van
    
  •    SIm                                   SOl
    E|--------------------------------|----------------------------------|
    B|--------------------------------|----------------------------------|
    G|--------------------------------|----------------------------------|
    D|----4--4-3-4-------4-4-4--5-4-3-|----------------------------------|
    A|--2-------------2---------------|-5---5--5-4-5-------5--5-4-5------|
    E|--------------2-----------------|---3------------2-3-----------3-2-|
    
    BAJO:     SI                           SOL
    G|--------------------------------|----------------------------------|
    D|--------------------------------|----------------------------------|
    A|--2-------------2---------------|----------------------------------|
    E|--------------2-----------------|-2-3------------2-3-----------3-2-|
    
    sigue...
    
    Guitarra
       SIm                                   SOl                              MIm
    E|--------------------------------|-------------------------------------|----------|
    B|--------------------------------|-------------------------------------|----------|
    
  •    Bm                                 G
    E|--------------------------------|----------------------------------|
    B|--------------------------------|----------------------------------|
    G|--------------------------------|----------------------------------|
    D|----4--4-3-4-------4-3-4-5-4-3-0|----------------------------------|x2
    A|--2------------0-2--------------|-----5--5-4-5-------5--5-4-5-5-2--|
    E|--------------------------------|---3------------0-3---------------|
       Em              Bm                             F#7
    E|-------------------------------------------------------------------|
    B|-------------------------------------------------------------------|
    G|-------------------------------------------------------------------|
    D|---------------------4--4-3-4--4---4-3-4-5-4-0---------------------|
    A|-------------------2-------------2--------------4444444444444444---|
    E|--0-----0-2-3-2~--------------------------------2222222222222222---|
    
    [Estrofa sobre riff...]
    
    Bm                        G7
    Sos el as del 'club París'.
    Bm                     G7
    
  •             SI5                          SOL 5
    Intro: D-----4-4-3-4-----4-3-4-5-6-4-3-0-------------------------
           A---2------------2-----------------5-5-3-5-----5-3-5-6-5--
           E---------------2-----------------3--------0-3------------
    
                  SI5                          SOL 5
           D-----4-4-3-4-----4-3-4-5-6-4-3-0-------------------------
           A---2------------2-----------------5-5-3-5-----5-3-5------
           E---------------2-----------------3--------0-3-------3-2--
                 MI5
           D----2~------------------
           A----2~------------------
           E----0~-------0-2-3-2-0--
    
                  SI5                          FA#5
           D-----4-4-3-4-----4-3-4-5-6-4----------4-------------------
           A---2------------2---------------------4--x9---------------
           E---------------2--------------------2----(mas o menos)
                                                 vuelve al principio
    
    
  • [b][u]Intro y verso[/u][/b]
    
    
    G|---------------------------------------------------------------|
    D|---------------------------------------------------------------|
    A|-2----2----5-----------------2---2--5--------------------------|
    E|----2-------3---3-2--2-3--------2----3--2-3--3-2-0---0-2-3-2-0-|
    
    
    G|---------------------------------------------|
    D|------------------------4-4--2-2-------------|   x3
    A|--2---2--------------------------5-5--4-4--2-|
    E|-----2------22222222-------------------------|
    
    
    En la segunda estrofa donde dice: "Yo no soy de aconsejar".
    El bajo agrega esto.
    
    Esto ya seria el [b][u]Estribillo:[/u][/b]
    
    G|---------------------------------------------------------------|
    D|---------------------------------------------------------------|
    A|-2----2----5-----------------2---2--5--------------------------|
    E|----2-------3---3-2--2-3--------2----3--2-3--3-2-0---0-2-3-2-0-|
    
    G|------------------------------------------|
    D|---------------------4-4--2-2-------------|
    A|-2-2----
  • [b][u]Intro y verso[/u][/b]
    
    
    G|---------------------------------------------------------------|
    D|---------------------------------------------------------------|
    A|-2----2----5-----------------2---2--5--------------------------|
    E|----2-------3---3-2--2-3--------2----3--2-3--3-2-0---0-2-3-2-0-|
    
    
    G|---------------------------------------------|
    D|------------------------4-4--2-2-------------|   x3
    A|--2---2--------------------------5-5--4-4--2-|
    E|-----2------22222222-------------------------|
    
    
    En la segunda estrofa donde dice: "Yo no soy de aconsejar".
    El bajo agrega esto.
    
    Esto ya seria el [b][u]Estribillo:[/u][/b]
    
    G|---------------------------------------------------------------|
    D|---------------------------------------------------------------|
    A|-2----2----5-----------------2---2--5--------------------------|
    E|----2-------3---3-2--2-3--------2----3--2-3--3-2-0---0-2-3-2-0-|
    
    G|------------------------------------------| |-----------------|
    D|---------------------4-4--2-2-----
  • +
    ¡Colabora con nosotros!
    Envíanos tu versión de esta canción

Letra de Blues de la artillería
Sos es el as del 'club Paris'
As, lo tuyo no es el rock
cierran los bares por donde van
tu breto y tus ojos grices.
Yo no soy de aconsejar
pero estas jodiendo al personal
debiste poner en rio ese restoran
que te quito el sueño el sueño
Pero...Cabe todo lo tuyo en una maldita valija?
De lider dealer sin freno?
Sos el as del club paris
(sos la joya del lugar)
El acento del barrio te sale mal
y te quita el sueño el sueño
Vas como un ciego en la bodega
Cual es tu charter cual es es?
sos un aristocrata de cotillon
Sos es el as del 'club Paris'
As, lo tuyo no es el rock
cierran los bares por donde vas
y te quita el sueño el sueño
Pero...Cabe todo lo tuyo en una maldita valija?
De lider dealer sin freno?
Si tu moneda hablara
Si esa moneda hablara mas de la cuenta...
Acordes:
Espero que les guste cualquier cosa manden un mail
Aguante CHACARITA JRS y EL REY DEL PATY




[Blues de la artillería chords][Blues de la artillería cifra]
© LaCuerda.net · aviso legal · privacidad · es · en · pt · contacto