Acordes de Guitarra » H »Hombres G » Estoy pintando tu sonrisa (Tab)

Estoy pintando tu sonrisa
Hombres G

Letras, Acordes y Tabs para Guitarra, Bajo y Ukulele

  • A                     C#m
    Estoy pintando tu sonrisa
    C#7                D
    del color del corazon
    Bm                       E
    la estoy pintando en el aire
                A    E
    con la imaginacion, uoh.
    A                   C#m
    Tu pelo es largo y negro
    C#7                    D
    lo estoy pintando al viento
    Bm             E
    a mi me gusta corto
            A                 E
    pero tu siempre lo llevas suelto.
    D                  F       A
    Quisiera que estuvieras aqui
    D                F         E
    para llenar mis labios de ti.
    
  • Intro   A
    
    A                     C#m  C#7
    Estoy pintando tu sonrisa,
                       D
    del color del corazón,
    Bm                       E
    la estoy pintando en el aire,
                  A              E
    con la imaginación, oh oh oh.
    
    Tu pelo es largo y negro,
    lo estoy pintando al viento,
    a mi me gusta corto,         E
    pero tu siempre, lo llevas suelto.
    
    CORO
    D                  Dm       A Riff 1
     Quisiera que estuvieras aquí,
    D                Dm         E  Riff 2
    
  • bueno esta parte es con flauta pero se puede tokar con
    una guitarra asi:
    
    E----------------------------------------10-14-10-14-10-12-
    B-2-3-5--0-2-3-5-5--2-3-5--0-2-3-5-5--12-------------------
    G----------------------------------------------------------
    D----------------------------------------------------------
    A----------------------------------------------------------
    E----------------------------------------------------------
    
    E-------10-14-10-14-10-12--10/12-12-9----12-10---------
    B-10/12-------------------------------10-------12------
    G-------------------------------------------------11-9-
    D------------------------------------------------------
    A------------------------------------------------------
    E------------------------------------------------------
    
    esta bn facil...solo ay que sacarle el ritmo...
  • +
    ¡Colabora con nosotros!
    Envíanos tu versión de esta canción

Letra de Estoy pintando tu sonrisa
Estoy pintando tu sonrisa
del color del corazon
la estoy pintando en el aire
con la imaginacion, uoh.
Tu pelo es largo y negro
lo estoy pintando al viento
a mi me gusta corto
pero tu siempre lo llevas suelto.
Quisiera que estuvieras aqui
para llenar mis labios de ti.
Tu cara es preciosa
la dibujo cada noche en cada cosa
te dibujo cuando sue~o
y te mantengo cerca de mi.
Quisiera que estuvieras aqui
y rebozar mis labios de ti.
Estoy pintando...tu sonrisa
(estoy pintando tu sonrisa).




[Estoy pintando tu sonrisa chords][Estoy pintando tu sonrisa cifra]
© LaCuerda.net · aviso legal · privacidad · es · en · pt · contacto