Acordes de Guitarra » E »Extremoduro » Dulce introducción al caos (Tab)

Dulce introducción al caos
Extremoduro

Letras, Acordes y Tabs para Guitarra, Bajo y Ukulele

  • SOL            RE               DO    RE
    Como quieres que escriba una canción
    SOL            RE               DO    RE
    si a tu lado no hay reivindicación.
    DO               RE                MIm
    La canción de que el tiempo no pasara
          RE           DO
    donde nunca pasa nada.
    
    SOL          RE             DO    RE
    Una racha de viento nos visitó
    SOL          RE             DO    RE
    y el árbol ni una rama se le agitó.
    DO           RE                  MIm
    La canción de que el viento se parara
          RE           DO
    donde nunca pasa nada.
    
    SOL          RE             DO     RE
    Un otoño el demonio se presentó
    
  • ------------------------------------------------------------------
    ----------------------------------------------------------------
    ---------0--------------0----------------0----------------0-------
    ------0-----0---------0----0----------2-----2----------2-----2------
    ----5----------5----5--------5-----3----------3-----3----------3-----
    -3----------------2-------------0----------------2-----------------
    
    2ºguit
    -------------------------------------------------------15----12----
    -12-13-15----12-13-15-13-13h12--------------12-13-15-15---12--------
    ----------------------------------14-12-------------------------14--
    ----------------------------------------12--------------------------
    ---------------------------------------------------------------------
    ---------------------------------------------------------------------
    
    ----------------------------------------------------------------
    ---15-15-13-12-13-15------------------------------------------
    ---------------------11-12-14b-12----------14--11-12---------
    ----------------------------------12----12-------------------
    ------------------------------------------------------------------
    
  • Arpegios de la intro
    
    -----------------------------------------------------    ---
    -----------------------------------------------------    ---
    --------0-----------0-----------0-----------0--------    ---
    ------0---0-------0---0-------2---2-------2---2------X2  ---
    ----5-------5---5-------5---3-------3---3-------3----    ---
    --3-----------2-----------0-----------2--------------    -2-
    
    
    Punteillos:
    
    El primero
    
    --------------------------------------------------------------
    --12--13--15~~~~~~~----12--13--15--13--12h13h12-------------
    --------------------------------------------------14--12--12--
    --------------------------------------------------------------
    --------------------------------------------------------------
    --------------------------------------------------------------
    
    -----------------15----12-------------------------------------
    --12--13--15~~~----13--------15--15--13--12--13--15~~~~~~--
    --------------------------14----------------------------------
    ----------------------
  • Dulce Introduccion al Caos
    
    Intro
    1ºguit
    ------------------------------------------------------------------
    ----------------------------------------------------------------
    ---------0--------------0----------------0----------------0-------
    ------0-----0---------0----0----------2-----2----------2-----2------
    ----5----------5----5--------5-----3----------3-----3----------3-----
    -3----------------2-------------0----------------2-----------------
    
    2ºguit
    -----------------------------------------------------------15----12----
    -12-13-15----12-13-15-13-12h13p12--------------12-13-15-15----12---------
    ----------------------------------14-12------------------------------14--
    ----------------------------------------12-------------------------------
    -----------------------------------------------------------------------
    -----------------------------------------------------------------------
    
    ----------------------------------------------------------------
    ---15-15-13-12-13-15-------------------
  •     DO    FA#    MI   FA#
    
    La primera guitarra hace básicamente eso durante
    la primera parte de la canción.
    
    
    Esto va cada vez que dice
    "La canción de que el tiempo/viento...":
    /----------------------
    /----------------------
    /----------------------
    /-5--7--9--7---5-------
    /-3--5--7--5---3-------
    -----------------------
      X6 X6 X6 X6
    
      01:59
    /----------------------
    /----------------------
    /---5------------------
    
  • +
    ¡Colabora con nosotros!
    Envíanos tu versión de esta canción
  • Tutorial
    HD
    COMO TOCAR DULCE INTRODUCCIÓN AL CAOS /EXTREMODURO
    23:28

Letra de Dulce introducción al caos
Como quieres que escriba una canción
si a tu lado no hay reivindicación.
La canción de que el tiempo no pasara
donde nunca pasa nada.
Una racha de viento nos visitó
y el árbol ni una rama se le agitó.
La canción de que el viento se parara
donde nunca pasa nada.
Un otoño el demonio se presentó
fue cuando el arbolito se deshojó.
La canción de que el tiempo se atrasara
donde nunca pasa nada.
Una racha de viento nos visitó
pero nuestra veleta ni se inmutó.
La canción de que el viento se parara
donde nunca pasa nada.
Mientras tanto pasan las horas,
sueño que despierto a su vera,
me pregunto si estará sola
y ardo dentro de una hoguera.
Como quieres que escriba una canción
si a tu lado he perdido la ambición.
La canción de que el tiempo no pasara
donde nunca pasa nada.
Se rompio la cadena que ataba el reloj a las horas,
se paró el aguacero ahora somos flotando dos gotas.
Agarrado un momento a la cola del viento me siento mejor,
y olvidé de poner en el suelo los pies y me siento mejor.
Volar! volar!
Una racha de viento nos visitó
y a nosotros ni el pelo se nos movió.
La canción de que el viento se parara
donde nunca pasa nada.
Ya no queda una piedra en pie
porque el viento lo derribó
No! No hay esa canción
Ya no queda nada de ayer
porque el viento se lo llevó
No! No hay esa canción
Ya no queda una piedra en pie
porque el viento lo derribó
No! No hay esa canción
Ya no queda nada de ayer
porque el viento se lo llevó
No! No hay esa canción
Vamos Extremo!!!
Para Laura, Sara y Marioneta!!!




[Dulce introducción al caos chords][Dulce introducción al caos cifra]
© LaCuerda.net · aviso legal · privacidad · es · en · pt · contacto