Acordes de Guitarra » E »Extremoduro » Salir (Tab)

Salir
Extremoduro

Letras, Acordes y Tabs para Guitarra, Bajo y Ukulele

  • G      Am
    Tú, harta de tanta duda,
    G      Am
    yo, de preguntarle al viento,
    C              D
    tú, ¿que dónde conocí a la luna?
    C              D
    ¿yo?, ¿que en qué coños ocupo el tiempo?
    
         G      Am      C         D
    En salir, beber, el rollo de siempre,
      Em        D         C           D
    meterme mil rayas, hablar con la gente,
        Em      D             C          D           Am7---]D
    llegar a la cama y ... ¡joder, que guarrada! sin tí.
    
    INSTRUMENTAL (Guitar+Violines): Em-D-C-D (x6)
    INSTRUMENTAL (Antes de cantar): G-Em-D-C-D (x2)
    
    ESTROFA 2:
    
  • e|------------------------------|
    B|------------------------------|
    G|---------0--------------0-----| (X2)
    D|-------0--------------0-------|
    A|-----2-------2/3----3------3-0|
    E|---3--------------5-----------|
    
    
      Punteo intro
    e|-----------------------------------------------------------|
    B|-----------------------------------------------------------|
    G|--------4-2-0h2p0-------0-----------4-2-0h2p0--------------|
    D|----2-------------4-2-0---4-0----2-------------4-2-0-------|
    A|--3----------------------------3---------------------3-2-0-|
    E|-----------------------------------------------------------|
    
    
    Estrofa 1:
    
    
    
  • e|------------------------------|
    B|------------------------------| 
    G|---------0--------------0-----| (X2)
    D|-------0--------------0-------| 
    A|-----2-------2/3----2---------| 
    E|---3--------------5-----------| 
    
    
      Punteo intro
    e|-----------------------------------------------------|
    B|-----------------------------------------------------|
    G|--------4-2-0-------0--------------4-2-0---------0---|
    D|----2---------4-2-0---4-0------2----------4-2-0------|
    A|--3--------------------------3-----------------------|
    E|-----------------------------------------------------|
    
    
    Estrofa 1:
    
    
    
  •     G3               A3            G3             A3
    e|-----------------------------------------------------------
    B|-----------------------------------------------------------
    G|--------0---------------0-------------0--------------0-----
    D|------0---0-----------0---0---------0---0----------0---0---
    A|----2-------2/3-----3-------3-----2-------2/3-----3------3-
    E|--3---------------5-------------3---------------5----------
    
    
    e|-----------------------------------------------------------
    B|-----------------------------------------------------------
    G|-------4-2-0h2p2-------0-----------4-2-0h2p2---------------
    D|----2------------4-2-0---4-0----2------------4-2-0---------
    A|--3---------------------------3---------------------3-2-0--
    E|-----------------------------------------------------------
    
    
         G3              A3
    e|-------------------------------------------------
    B|-------------------------------------------------
    
  • +
    ¡Colabora con nosotros!
    Envíanos tu versión de esta canción

Letra de Salir
Tú, harta de tanta duda,
yo, de preguntarle al viento,
tú, ¿que dónde conocí a la luna?
¿yo?, ¿que en qué coños ocupo el tiempo?
En salir, beber, el rollo de siempre,
meterme mil rayas, hablar con la gente,
llegar a la cama y ... ¡joder, que guarrada! sin tí.
INSTRUMENTAL (Guitar+Violines): Em-D-C-D (x6)
INSTRUMENTAL (Antes de cantar): G-Em-D-C-D (x2)
ESTROFA 2:
Voy que ni toco el suelo y espantao hasta las nubes,
no sé si son tus besos o este tripi que me sube.
Ya no me acuerdo de na, que todo era de colores.
¿Dónde estarán los besos? - se los han quedao las flores.
Salir, beber, el rollo de siempre,
meterme mil rayas, hablar con la gente,
llegar a la cama y ... ¡joder, que guarrada! sin tí.
y al día siguiente...
ESTROFA3:
Y al llegar a casa
me saludan: ¡oye!, ¿dónde vas cabrón?,
¿dónde te has metido?
te aseguro que no he estao de más, que no he perdido el tiempo,
que lo he gastado en:
En salir, beber, el rollo de siempre,
meterme mil rayas, hablar con la gente,
llegar a la cama y ... ¡joder, que guarrada! sin tí.
y al día siguiente... (ESTRIBILLO x2)
POESÍA: G-Am-Bm-C (x4)
*Para algunos vivir es galopar un camino
empedrado de horas, minutos y segundos.
Yo más humilde soy y sólo quiero que la ola
que surge del último suspiro de un segundo,
me transporte mecido hasta el siguiente*
Salir ,beber
Salir, beber, el rollo de siempre,
meterme mil rayas, hablar con la gente,
llegar a la cama y ... ¡joder, que guarrada! sin tí.
y al día siguiente... (ESTRIBILLO x2)
Ya no me acuerdo de na, que todo era de colores.
¿Dónde estarán los besos? - se los han quedao las flores.
Salir ,beber
Salir, beber, el rollo de siempre,
meterme mil rayas, hablar con la gente,
llegar a la cama y ... ¡joder, que guarrada! sin tí.
y al día siguiente...
Ya no me acuerdo de na




[Salir chords][Salir cifra]
© LaCuerda.net · aviso legal · privacidad · es · en · pt · contacto