Tablatura para Guitarra de Extremoduro: Dulce introducción al caos
Conexión · Inscripción
Letras y Acordes
Pantalla Completa
Imprimir
Versión Texto
Añadir Favorito
Otras Versiones

Mostrar Diagramas
Desfile Automático
Manipular Acordes
Formato del Texto


Dulce introducción al caos(TAB)

Extremoduro

calidad:
extr0724
AUTOR: Roberto Inista e Iñaki Antón
ALBUM: La ley Innata (2008)
Enviado por David
Dulce Introduccion al Caos

Intro
1ºguit
------------------------------------------------------------------
----------------------------------------------------------------
---------0--------------0----------------0----------------0-------
------0-----0---------0----0----------2-----2----------2-----2------
----5----------5----5--------5-----3----------3-----3----------3-----
-3----------------2-------------0----------------2-----------------

2ºguit
-----------------------------------------------------------15----12----
-12-13-15----12-13-15-13-12h13p12--------------12-13-15-15----12---------
----------------------------------14-12------------------------------14--
----------------------------------------12-------------------------------
-----------------------------------------------------------------------
-----------------------------------------------------------------------

----------------------------------------------------------------
---15-15-13-12-13-15------------------------------------------
---------------------11-12-14b-12----------14--11-12---------
----------------------------------12----12-------------------
------------------------------------------------------------------
---------------------------------------------------------------


Intro (un monton de veces y algunas cn palmute)

2º guit(1:05)

-------------------------------------------------------------
-12-13-15---10-12-13---8-10-12--8------8--8/10------------------
-----------------------------------11----------11----12--12-12-14--
--------------------------------------------------12--------------
------------------------------------------------------------------
-----------------------------------------------------------------

-------------------------------------------------------------
-12-13-15---10-12-13---8-10-12--8------8--8/10-----------------
-----------------------------------11----------11--12-----
-------------------------------------------------------------
-------------------------------------------------------------
--------------------------------------------------------------


2ºguit(2:10)

--------------------------------------------------------------
-12-13-15--12-13-15-13-12-----------------------------------
--------------------------14-12-----------------------------------X4)
---------------------------------12----------------------------
-----------------------------------------------------------------
------------------------------------------------------------------


2º guit(3:09)

----------15----------------12--------------------------------------
-12-13-15----15----10-12-13----13----8-10-12-8-----8-8/10-----------
------------------------------------------------11--------11-12-----
--------------------------------------------------------------------
---------------------------------------------------------------------
---------------------------------------------------------------------
2ºguit(5:08)

--------------------------------------|
------12-------------12p10-8-10p8-7-8-|--
-9-11-----(X3)--9-11------------------|-
--------------------------------------|
--------------------------------------
--------------------------------------

---------------------------------------
------------------------------------12--
--9-11-12-(X3)-9-11-12p11-9-11-9-11----
--------------------------------------|
--------------------------------------
--------------------------------------|

--------------------------------------|
------12-------------12p10-8-10p8-7-8-|
-9-11-----(X3)--9-11------------------|
--------------------------------------|
--------------------------------------
--------------------------------------|

----------------------------10-10h12-10-12/15-12-
----------------------10-12--------------------
-9-11-12-(X2)-9h11h12--------------------------
------------------------------------------------
---------------------------------------------
----------------------------------------------

la guitarra ritmica acompaña este punteo con A  G  F  G
haciendo el mismo ritmo k en el minuto(5:50)

Esto es todo lo k hemos podido sakar.
Algunas cosas estaran bien y otras mal.
Si alguien la puede completar k la envie,
a ver si es verdad k entre todos la sacamos.
Saludos!
Este fichero es trabajo propio de su transcriptor y representa su interpretación personal de la canción. El material contenido en esta página es
para exclusivo uso privado, por lo que se prohibe su reproducción o retransmisión, así como su uso para fines comerciales.

© LaCuerda.net · Aviso Legal · Privacidad