Tablatura para Guitarra de Extremoduro: Dulce introducción al caos
Conexión · Inscripción
Letras y Acordes
Pantalla Completa
Imprimir
Versión Texto
Añadir Favorito
Otras Versiones

Mostrar Diagramas
Desfile Automático
Manipular Acordes
Formato del Texto


Dulce introducción al caos(TAB)

Extremoduro

calidad:
extr0722
AUTOR: Roberto Inista e Iñaki Antón
ALBUM: La ley Innata (2008)
Enviado por Ebaristo
Arpegios de la intro

-----------------------------------------------------    ---
-----------------------------------------------------    ---
--------0-----------0-----------0-----------0--------    ---
------0---0-------0---0-------2---2-------2---2------X2  ---
----5-------5---5-------5---3-------3---3-------3----    ---
--3-----------2-----------0-----------2--------------    -2-


Punteillos:

El primero

--------------------------------------------------------------
--12--13--15~~~~~~~----12--13--15--13--12h13h12-------------
--------------------------------------------------14--12--12--
--------------------------------------------------------------
--------------------------------------------------------------
--------------------------------------------------------------

-----------------15----12-------------------------------------
--12--13--15~~~----13--------15--15--13--12--13--15~~~~~~--
--------------------------14----------------------------------
--------------------------------------------------------------
--------------------------------------------------------------
--------------------------------------------------------------

--------------------------------------------------------------
--12--13--13bsb--12-------------------------------------------
---------------------12--11--14--11--12-----------------------
--------------------------------------------------------------
--------------------------------------------------------------
--------------------------------------------------------------

Esto es casi como la intro, solo la guitarra

-----------------------------------------------
-----------------------------------------------
--------0-----------0-----------0--------------
------0---0-------0---0-------2---2----2--2----
----5-------5---5-------5---3-------3--3--3----
--3-----------2-----------0------------2--2----

--------------------------------------------
--------------------------------------------
--------0-----------0-----------0-----------
------0---0-------0---0-------2---2---------
----5-------5---5-------5---3-------3-------
--3-----------2-----------0-----------2-----

aluego viene un trozo q no me termino de sacar,
no esta bien del todo mientras se lo saca alguno puede valer

---------------------------------------------------------
--------0------------0------------0------------0---------
--------0------------0------------0------------0------0--
----------2------------4------------4------------4----2--
--3-3-3-----3--5-5-5-----5--7-7-7-----5--5-5-5-----5--3--
---------------------------------------------------------

Segundo punteillo

---------------------------------------------------------
--12-13-15~~~~----12-13~~~~-------12~~~~-------------
-----------------14------------12-14---------12-11-12----
---------------------------------------------------------
---------------------------------------------------------
---------------------------------------------------------

------------------------------------------------------------
-----------------------12--13---12-13-15~~~~-----12-13~~~~
--12s14-11-----12--14--------------------------14-----------
-----------12-----------------------------------------------
------------------------------------------------------------
------------------------------------------------------------

----------------------------------------
--------12~~~~-------------------------
--12-14----------12-11-12-12s14-11-12---
----------------------------------------
----------------------------------------
----------------------------------------

Luego otra vez como antes

Luego ya la kosa se va kalentando y mi se eskapa
a mi nivel de guitarra, que lo sake melorosendo!!! (puto crack el tio)

Ebaristo-->afitdome69@hotmail.com
Este fichero es trabajo propio de su transcriptor y representa su interpretación personal de la canción. El material contenido en esta página es
para exclusivo uso privado, por lo que se prohibe su reproducción o retransmisión, así como su uso para fines comerciales.

© LaCuerda.net · Aviso Legal · Privacidad