Acordes de Guitarra » E »Extremoduro » Jesucristo García (Tab)

Jesucristo García
Extremoduro

Letras, Acordes y Tabs para Guitarra, Bajo y Ukulele

  •     INTRO: LAm-DO-FA-MI 2 VECES
    AKI EL RITMO ES 2 TOQUES CUERDAS GRAVES Y 1 TOQUE TODAS LAS CUERDAS
    Y CAMBIO AL SIGUIENTE ACORDE,EN EL "MI" HACEMOS UN REDOBLE
     (SEGUIMOS IGUAL HASTA LAS QUINTAS)
    
    LAm    DO FA              MI     LAm    DO  FA-MI
     Concreté, la fecha de mi muerte con Satán.
    LAm     DO FA               MI           LAm       DO  FA-MI
     Le engañé, y ahora no hay quien me pare, ya los pies.
    LAm   DO FA                MI    LAm   DO  FA-MI
     Razonar, es siempre tan difícil, para mí.
    LAm      DO FA                  MI   LAm       DO       FA-MI
     Qué más da, si al final todo me sale siempre bien, del revés.
    
      (LA SIGUIENTE ESTROFA SON LAS QUINTAS)
         EL RITMO ES,2 TOQUES POR QUINTA
    FA                    DO           SOL    LA               MI         FA
     Nací un buen día,mi madre no era virgen,no vino el rey, tampoco me importó
    FA             LA                         SOL                       RE
     hago milagros,convierto el agua en vino,me resucito si me hago un canutito
    
  • Bm   D     G     F#           Bm   D  G F#
    Concreté la fecha de mi muerte con Satán.
    Bm   D     G     F#           Bm   D  G F#
    Le engañé y ahora no hay quien me pare, ya los pies.
    Bm   D     G     F#           Bm   D  G F#
    Razonar, es siempre tan difícil para mí.
    Bm   D     G     F#           Bm   D  G F#
    Qué más da, si al final todo me sale siempre bien, del revés.
    
        G              D
    Nací un buen día, mi madre no era virgen
         A          F#
    no vino el rey, tampoco me importó
       G                 D
    hago milagros, convierto el agua en vino
      A           F#
    me resucito si me hago un canutito.
    
        G               D
    Soy Evaristo, el rey de la baraja
    
  • Bm     D       G     F#           Bm   D  G F#
    Concreté la fecha de mi muerte con Satán.
    Bm      D
    Le engañé
     G       F#                   Bm       D   G F#
    y ahora no hay quien me pare, ya los pies.
    Bm    D
    Razonar
    G       F#            Bm     D   G F#
    es siempre tan difícil para mí.
    Bm      D
    Qué más da
    G          F#             Bm       D      G F#
    si al final todo me sale siempre bien, del revés.
        G...               D.....
    Nací un buen día, mi madre no era virgen
         A....           F#....
    no vino el rey, tampoco me importó
       G...                   D...
    hago milagros, convierto el agua en vino
    
  • e|--------------------------------------------------------------------------------|
    B|-----------------------------------------------------------------3--------------|
    G|----------0------------0-------------------------------------3-----------2------|
    D|------4-0---4------4-0-----------7-5-9-7-----7-5-9---------3-----------2--------|
    A|----2------------2-------------5-----------5-------------5-----------4----------|
    E|--2--------------------------5-------------------------3-----------2------------|
    
       Al mismo tiempo el bajo hace esto:
    G|--------------------------------------------------------------------------------|
    D|--------------------------------------------------------------------------------|
    A|----2--------------2-----------5-------------5-----------5----------4-----------|
    E|--2--------------2-----------5-------------5-----------3----------2-------------|
    
    
    
      Punteo:
    e|---------------------------------------------------------------------------------
    B|-----------7/5--5---------------7-8-8/10-8-7------------------7-------------7----
    G|--9^--7-9---------7-6------------------------9-7----------7-------------7--------
    D|----------------------7-9---------------------------9-7-9---9-----9-7-9---9------
    
  • e|--------------------------------------------------------------------------|
    B|---------------------------------------------------------------3----------|
    G|----------0------------0-----------------------------------3-----------2--|
    D|------4-0---4------4-0-----------7-5-9-7-----7-5-9-------3-----------2----|
    A|----2------------2-------------5-----------5-----------5-----------4------|
    E|--2--------------------------5-----------------------3-----------2--------|
    
      Punteo:
    e|---------------------------------------------------------------------------
    B|-----------7/5--5------------7-8-8/10-8-7------------------7-------------7-
    G|--9^--7-9---------7-6---------------------9-7----------7-------------7-----
    D|----------------------7-9------------------------9-7-9---9-----9-7-9---9---
    A|---------------------------------------------------------------------------
    E|---------------------------------------------------------------------------
    
    
    e|-------------------------------------------||
    B|------------10--8-7-7p8h7---7--------------||
    G|--------7---------------------7------------||
    D|--9-7-9---9---------------------7-9--------||
    
  • La saqué de oído y me parece una versión mejor, así que espero que sirva :)
    
    INTRO:
    
    G||--------------------------||--------------------------||
    D||--------------------------||--------------------------||
    A||-------2------------------||-------2------------------||
    E||---3----------------------||---3----------------------||
    
    "El 30 de abril, Jesucristo García bajó de los cielos..."
      -"a mí no vienen a verme los enfermos..."-
    
    G||--------------------------||--------------------------||
    D||--------------------------||--------------------------||
    A||---0---5------------------||---0---5------------------||
    E||--------------------------||--------------------------||
    
    "No, yo no soy Jesucristo García"
      -"...y les pongo a todos ciegos!"-
    
    G||--------------------------||--------------------------||
    D||---0---5------------------||---0---4------------------||
    A||--------------------------||--------------------------||
    E||--------------------------||--------------------------||
    
    -En el p
  • G||---------------------|-------||---------------------|-------||
    D||*--------------------|------*||*--------------------|------*||
    A||*-------2------------|------*||*-------5------------|------*||
    E||---2-----------------|-------||---5-----------------|-------||
    
    
    --------------------|-------------------|-------------------|------|
    -------5------------|-------------------|----4--------------|------|
    --5-----------------|----------------4--|-------------------|------|
    --------------------|-------------------|-------------------|------|
    
    
    |---------------------|-------||---------------------|-------||
    |*--------------------|------*||*--------------------|------*||
    |*-------2------------|------*||*-------5------------|------*||
    |---2-----------------|-------||---5-----------------|-------||
    
    
    --------------------|-------------------|-------------------|------|
    -------5------------|-------------------|----4--------------|------|
    --5-----------------|----------------4--|-------------------
  • +
    ¡Colabora con nosotros!
    Envíanos tu versión de esta canción

Letra de Jesucristo García
AKI EL RITMO ES 2 TOQUES CUERDAS GRAVES Y 1 TOQUE TODAS LAS CUERDAS
Y CAMBIO AL SIGUIENTE ACORDE,EN EL "MI" HACEMOS UN REDOBLE
(SEGUIMOS IGUAL HASTA LAS QUINTAS)
Concreté, la fecha de mi muerte con Satán.
Le engañé, y ahora no hay quien me pare, ya los pies.
Razonar, es siempre tan difícil, para mí.
Qué más da, si al final todo me sale siempre bien, del revés.
(LA SIGUIENTE ESTROFA SON LAS QUINTAS)
EL RITMO ES,2 TOQUES POR QUINTA
Nací un buen día,mi madre no era virgen,no vino el rey, tampoco me importó
hago milagros,convierto el agua en vino,me resucito si me hago un canutito
Soy Evaristo, el rey de la baraja, vivo entre rejas, antes era chapista
los mercaderes, ocuparon mi templo, y me aplicaron ley antiterrorista.
(LA SIGUIENTE ESTROFA, SE HACE UN RITMO RASCADO)
YO UTILIZO ESTE , 2 ABAJO, 2 ARRIBA, 1 ABAJO , 1 ARRIBA
¿Cuánto más necesito para ser dios, dios, dios?
¿Cuánto más necesito convencer?
¿Cuánto más necesito para ser dios, dios, dios?
¿Cuánto más necesito convencer?
( AKI VOLVEMOS HACER LO MISMO QUE AL PRINCIPIO )
Y perdí, la cuenta de las veces que te amé.
Desquicié, tu vida por ponerla junto a mí.
Vomité, mi alma en cada verso que te dí ¿qué te di?
Olvidé, me quedan tantas cosas que decir ¿qué decir?
(AKI OTRA VEZ LAS QUINTAS)
Por conocer, a cuantos se margina, un día me vi metido en la heroína.
aún hubo más, menuda pesadilla, crucificado a base de pastillas.
Soy Evaristo, el rey de la baraja, vivo entre rejas, antes era chapista
los mercaderes, ocuparon mi templo, y me aplicaron ley antiterrorista.
(AKI OTRA VEZ EL TITMO RASCADO)
¿Cuánto más necesito para ser dios, dios, dios?
¿Cuánto más necesito convencer?
¿Cuánto más necesito para ser dios, dios, dios?
¿Cuánto más necesito convencer?
ESTO ES TODO, ESPERO QUE ESTE BIEN EXPLICADO
ESTA CANCION SE LA DEDICO A MI MUJER,ALICIA TE KIERO MUXO....




[Jesucristo García chords][Jesucristo García cifra]
© LaCuerda.net · aviso legal · privacidad · es · en · pt · contacto