Acordes de Guitarra » E »Extremoduro » La Vereda De La Puerta De Atrás (Tab)

La Vereda De La Puerta De Atrás
Extremoduro

Letras, Acordes y Tabs para Guitarra, Bajo y Ukulele

  • ------------------------------------------------------
    ------------------------------------------------------
    -------------------------------------0-2-2-0-0---0-2--
    -----------------------------0---0-2-----------2------
    -0-2-3-3-2-2-0-2-------0-2-3---3----------------------
    -----------------3-0-3--------------------------------
    
    --------------------------1-0-5--
    -0-1-0---0-----------------------
    -------2---0---------------------
    -------------2-1-0---0-----------
    -------------------3---2---------
    ---------------------------------
    
    
         MIm
    Si no fuera
    
          RE       DO
    porque hice colocado
    
  • ------------------------------------------------------
    ------------------------------------------------------
    -------------------------------------0-2-2-0-0---0-2--
    -----------------------------0---0-2-----------2------
    -0-2-3-3-2-2-0-2-------0-2-3---3----------------------
    -----------------3-0-3--------------------------------
    
    --------------------------1>0-5--
    -0-1>0---0-----------------------
    -------2---0---------------------
    -------------2-1-0---0-----------
    -------------------3---2---------
    ---------------------------------
    
    (EL OTRO PUNTEO QUE HACE A CONTINUACIÓN NO OS LO PONGO
    PORQUE ES UN COÑAZO ESCRIBIRLO DE FORMA CLARA, Y ADEMÁS
    ES MUY SIMILAR AL ANTERIOR)
    
    Y A PARTIR DE AQUÍ ENTRAN LOS ACORDES QUE SE TOCAN RASCANDO
    SÓLO LAS 3 PRIMERAS CUERDAS, Y LA 4 A MODO DE BAJO:
    
  • F ||------------------------------------------------------------------
    C ||------------------------------------------------------------0-1-0-
    Ab||-------------------------------------------0-2-2-0-0----0-2-------
    Eb||-----------------------------------0---0-2-----------2------------
    Bb||--0-2-3--3-2--2-0--2-------0---2-3---3----------------------------
    F ||---------------------3-0-3----------------------------------------
    
    f ||------------------------------------------------------------------
    c ||----0-------------------------------------------------------1x-1-3b
    Ab||--2---0-----------------------------------------0x----0x-2x-------
    Eb||--------2-1---0----------------------------0-2x----2x-------------
    Bb||------------3---2------------0-2-3--3-2--3------------------------
    F ||------------------------------------------------------------------
    
    f ||---------------------------------3-------------------3/5-3---3-1------------------
    c ||--1-3-3-1-0----------0-1-3-1-3/5---5h3h1-3h1---3-1---------5-----5~~3-5^5^-3-1-3-0
    Ab||------------2-0--0-2-------------------------2-----2------------------------------
    Eb||----------------------------------------------------------------------------------
    Bb||----------------------------------------------------------------------------------
    F ||----------------------------------------------------------------------------------
    
  • |------------------------------------------------------|
    |------------------------------------------------------|
    |------------------------------------------------------|
    |------------------------------------------------------|
    |-----------------------------------------3-5-3--5-5s7-|
    |-5--7--8---8--7---7--5---7--3---0-3-5--5--------------|
    
    
    
    
          ~    ~    ~                                    ~
    |---------------------------------------------------------|
    |---------------------------------------------------------|
    |------------------------5--4h5p4----4--------------------|
    |---5-7--7-5--5------5-7----------5----5------------------|
    |-7-------------7--7---------------------7--4-5--3-5-2----|
    |---------------------------------------------------------|
    
    
            ~      ~      ~                                   ~
    
  • |--------------------------------------|
    |--------------------------------------|
    |--------------------------------------|
    |--------------------------------------|
    |-----9-9-9---7-7-7---5-5-5---7-7-7----|
    |-----7-7-7---5-5-5---3-3-3---5-5-5----|
    
    
    Si no fuera porque hice colocado
    el camino de tu espera
    me habría desconectado
    condenado
    a mirarte desde fuera
    y dejar que te tocara el sol.
    
    Y si fuera
    mi vida una escalera
    me la he pasado entera
    buscando el siguiente escalón,
    convencido
    
  • NOTA:
    
    Espero y te ayude en algo esta tab.
    
    Si necesitas una tab en especial, escríbeme o visita...
    
    myspace.com/alejandrolauyola
    
                 Q    E  E  Q    E  E     Q    E  E  Q    E  E
    G||-------|------------------------|------------------------|
    D||-------|------------------------|------------------------|
    A||-------|--3----3--3--2----2--2--|--0----0--0-------------|
    E||-------|------------------------|-------------3----0--3--|
    
    
      Q    E  E  Q    E  E     Q    E  E  Q    E  E
    ------------------------|------------------------|
    ------------------------|------------------------|
    --0----0--0--0----0--0--|--3----3--3--2----2--2--|
    ------------------------|------------------------|
    
    
      Q    E  E  Q    E  E     Q    E  E  Q    E  E
    ------------------------|------------------------|
    ------------------------|------------------------|
    --0----0--0-------------|--0----0--0--0----0--0--|
    -------------3----0--3--|------------------------|
    
    
      Q    E  E  Q    E  E     E  E  E  E  H           
  • +
    ¡Colabora con nosotros!
    Envíanos tu versión de esta canción
  • Tutorial
    Como tocar La vereda de la puertas de atrás - Extremoduro (Acordes Guitarra Tutorial)
    10:59

Letra de La Vereda De La Puerta De Atrás
Si no fuera
porque hice colocado
el camino de tu espera
me habría desconectado
condenado a mirarte desde fuera
y dejar que te tocara el sol.
Y si fuera
mi vida una escalera
me la he pasado entera
buscando el siguiente escalón
convencido que estás en el tejado
esperando a ver si llego yo.
Y dejar de lado la vereda de la puerta de atrás
por donde te vi pasar
como una regadera que la hierba hace que vuelva a brotar
y ahora todo es campo ya.
Sus soldados
son flores de madera
y mi ejercito no tiene
bandera es sólo un corazón
condenado a vivir entre malezas
sembrando flores de algodón.
Si me espera
la muerte traicionera
y antes de repartirme
del todo me veo en un cajón
que me entierren con la picha por fuera
pa' que se la coma un ratón.
Y muere a todas horas gente dentro de mi televisor
quiero oir alguna canción
que no hable de sandeces y que diga que no sobra el amor
y que empiece en si y no en no.
Y dejar de lado la vereda de la puerta de atrás
por donde te vi marchar
como una regadera que la hierba hace que vuelva a brotar
y ahora todo es campo ya.
Dices que a veces no comprendes que dice mi voz
como quieres que esté dentro de tu ombligo
si entre los dedos se me escapa volando una flor
y ella solita va marcando el camino.
Dices que a veces no comprendes que dice mi voz
como quieres que yo sepa lo que digo
si entre los dedos se me escapa volando una flor
y yo la dejo que me marque el camino.
********************************************
Para aquellos que se les atragante el acorde SIm :
Podemos cambiar la secuencia del estribillo "sol,mim,sim,do"
por la secuencia "sol,lam,mim,do". No suena exactamente igual
pero para salir del paso esta muy lograda!
********************************************




[La Vereda De La Puerta De Atrás chords][La Vereda De La Puerta De Atrás cifra]
© LaCuerda.net · aviso legal · privacidad · es · en · pt · contacto