Tablatura para Guitarra de Extremoduro: Dulce introducción al caos
Conexión · Inscripción
Letras y Acordes
Pantalla Completa
Imprimir
Versión Texto
Añadir Favorito
Otras Versiones

Mostrar Diagramas
Desfile Automático
Manipular Acordes
Formato del Texto


Dulce introducción al caos(TAB)

Extremoduro

calidad:
extr0721
AUTOR: Roberto Inista e Iñaki Antón
ALBUM: La ley Innata (2008)
Enviado por Alberto, basado en David
Intro
1ºguit
------------------------------------------------------------------
----------------------------------------------------------------
---------0--------------0----------------0----------------0-------
------0-----0---------0----0----------2-----2----------2-----2------
----5----------5----5--------5-----3----------3-----3----------3-----
-3----------------2-------------0----------------2-----------------

2ºguit
-------------------------------------------------------15----12----
-12-13-15----12-13-15-13-13h12--------------12-13-15-15---12--------
----------------------------------14-12-------------------------14--
----------------------------------------12--------------------------
---------------------------------------------------------------------
---------------------------------------------------------------------

----------------------------------------------------------------
---15-15-13-12-13-15------------------------------------------
---------------------11-12-14b-12----------14--11-12---------
----------------------------------12----12-------------------
------------------------------------------------------------------
---------------------------------------------------------------

1ºguit
------------------------------------------------------------------
----------------------------------------------------------------
---------0--------------0----------------0----------------0-------
------0-----0---------0----0----------2-----2----------2-----2------
----5----------5----5--------5-----3----------3-----3----------3-----
-3----------------2-------------0----------------2-----------------
Esto va cada vez que dice
"La canción de que el tiempo/viento...":
/---------------------------
/---0----0----0----0--0-----
/-5-5--7-7--9-9--7-7--5------
/-5----7----9----7----5-------
/-3----5----7----5----3-------
----------------------------
  X6   X6   X6  X6
-
/-----------------------------------------
/----------9------7----------------------
/--11-------10-----8---------------------
/----12-------11----9--------------------    X2
/------13---------------------------------
------------------------10-10-12-10-12-12-10---



"La canción de que el tiempo/viento...":
/---------------------------
/---0----0----0----0--0-----
/-5-5--7-7--9-9--7-7--5------
/-5----7----9----7----5-------
/-3----5----7----5----3-------
----------------------------
  X6   X6   X6  X6

/------------------------------
/--7-------9----------------------
/---6-------8--------------------
/----5-------7--------------------
/------------------------------
/-------------------------------

2º guit(1:05)

-------------------------------------------------------------
-12-13-15---10-12-13---8-10-12--8------8--8b10------------------
-----------------------------------11----------11----12--12-12-14--
--------------------------------------------------12--------------
------------------------------------------------------------------
-----------------------------------------------------------------

-------------------------------------------------------------
-12-13-15---10-12-13---8-10-12--8------8--8/10-----------------
-----------------------------------11----------11--12-----
-------------------------------------------------------------
-------------------------------------------------------------
--------------------------------------------------------------
1ºguit
------------------------------------------------------------------
----------------------------------------------------------------
---------0--------------0----------------0----------------0-------
------0-----0---------0----0----------2-----2----------2-----2------
----5----------5----5--------5-----3----------3-----3----------3-----
-3----------------2-------------0----------------2-----------------
"La canción de que el tiempo/viento...":
/---------------------------
/---0----0----0----0--0-----
/-5-5--7-7--9-9--7-7--5------
/-5----7----9----7----5-------
/-3----5----7----5----3-------
----------------------------
  X6   X6   X6  X6
-----------------------------------------
/---------------9------7----------------------
/---7---11-------10-----8---------------------
/5b7------12-------11----9--------------------    X2
/-----------13---------------------------------
----------------------------10-10-12-10-12-12-10---
 "La canción de que el tiempo/viento...":
/---------------------------
/---0----0----0----0--0-----
/-5-5--7-7--9-9--7-7--5------
/-5----7----9----7----5-------
/-3----5----7----5----3-------
----------------------------
  X6   X6   X6  X6
ELECTRICA
01:59
/----------------------
/----------------------
/---5------------------
/--5--5-5-5-5-5-5-5-5-5
/-----3-3-3-3-3-3-3-3-3
/---------------------- ...


2ºguit(2:10)

-------------------------------------------
-12-13-15--12-13--12b13--12----------------
----------------------------14-12------------X1
----------------------------------12-------
------------------------------------------
----------------------------------------

----------------------------------------
-12-13-15---12--12--12-13--12b13--12------------
--------------0---------------------14-12------X3
---------------0-------------------------12---
--------------------------------------------
---------------------------------------------



Durante el solo se repite
eso último que hemos tocado.

Solo (2:25):
/-----------------------------------------------
/-----------------------------------------------
/-------12-14b16-12~-11-12-12b14-12-11-------------
/-12--12------------------------------14-12b14-12-
/---14------------------------------------------
/-----------------------------------------------

/-------------------------------------------12-14-15-
/----------------------------------12-13-15----------
/--------------------------11-12-14------------------
/--------------------12-14---------------------------
/-14--12-12b14---12----------------------------------
/---15---------15------------------------------------

"mientras tanto pasan las horas..."
/--17b19-15---20b22--19-17-15-14---14-15-------------------
/--------------------------------17--------------------------
/----------17-----------------------------17---11-12-14------
/-------------------------------------------17---------12-10-
/------------------------------------------------------------
/------------------------------------------------------------

/-------------------------------------
/--------15~-----------------------------
/-----12----16-17-16b17-16-14-12-12~~-
/---12--------------------------------
/-14----------------------------------
/-------------------------------------


2º guit(2:57)
------------------------------------------------------------
-12-13-15---10-12-13---8-10-12--8------8--8b10-----------------
-----------------------------------11----------11-12-12-12-12-14-
-------------------------------------------------------------
-------------------------------------------------------------
--------------------------------------------------------------

----------15----------------12----------------------------------
-12-13-15----15----10-12-13----13----8-10-12-8-----8-8b10-------
------------------------------------------------11--------11-12-
----------------------------------------------------------------
----------------------------------------------------------------
----------------------------------------------------------------

1ºguit
----------------------------------------------------------------
----------------------------------------------------------------
---------0--------------0----------------0----------------0-----
------0-----0---------0----0----------2-----2----------2-----2--
----5----------5----5--------5-----3----------3-----3----------3-
-3----------------2-------------0----------------2---------------

-----------------------------------------
/---------------9------7----------------------
/---7---11-------10-----8---------------------
/5b7------12-------11----9--------------------    X2
/-----------13---------------------------------
----------------------------10-10-12-10-12-12-10---
"La canción de que el tiempo/viento...":
/------------------------------
/---0----0----0----0--0--------
/-5-5--7-7--9-9--7-7--5-----5---
/-5----7----9----7----5--6b7-7-
/-3----5----7----5----3-------
----------------------------
  X6   X6   X6  X6
se rompió la cadena que ataba el reloj a las horas..."
SOL FA# MI DO RE "se paró el aguacero ahora somos flotando dos gotas..."
SOL FA# MI DO RE "agarrado un momento a la cola del viento me siento mejor..."
DO RE MI DO "me olvidé de poner en el suelo los pies y me siento mejor..."
DO RE MI DO SE ROMPIO LA CADENA QUE ATABA EL RELOJ A LAS HORAS..... ESTO VA ANTES DEL 2º SOLO /-15h17-----------------19h21----------------- /------17-15-19-15-17--------21-19-19-17-17--- /--------------------------------------------- /--------------------------------------------- /--------------------------------------------- /--------------------------------------------- SOLO 4:02 ESTE SOLO AÚN LO TENGO QUE SACAR PORQUE SE ME ESCAPAN ALGUNAS NOTAS SI ALGUIEN LO TIENE POR FAVOR QUE LO MANDE A :albertogefe@hotmail.com /-------------------------------------------------- /--12~13-15-12~-----13~---15-----------13-12-13-15- /--------------14-12----12--12-12b14-12------------- /--------------------------------------------------- /--------------------------------------------------- /--------------------------------------------------- /12-15-17-17b19---17b19-15-17------- /----------------------------------- /------------------------------------ /------------------------------------ /----------------------------------- /-------------------------------------- /--------------------------------------- /12-12---13-15-13-15-17-15-13-15-13----------- /--0-------------------------------15-12-12-- /---------------------------------------- /--------------------------------------- /--------------------------------------- /--------------------------------------- /--------------------------------------- /--------------------------------------- /--------------------------------------- /--------------------------------------- /--------------------------------------- /----------------------------------- /----------------------------------- /----------------------------------- /--5-5-5-5-5-5-5-5-5-5-5-5-5-5-5-5-- /--3-3-3-3-3-3-3-3-3-3-3-3-3-3-3-3-- /----------------------------------- ... Empezamos con PM y vamos abriendo "Ya no queda una piedra en pie, porque el viento lo derribó"
MI RE MI RE "No, no hay esa canción"
LA DO /------------------------------------------------------------ /------------------------------------------------------------ /-------9-------7-------9-------7---------------------------- /-------9-------7-------9-------7--------2-4--2---4b5-------- X2 /-7-7-7-7-5-5-5-5-7-7-7-7-5-5-5-5----2--5------5-4----------- /------------------------------------------------------------ x x x x x x x x x x x x 3er Solo (5:07): /---------------------------------------------- /-----12----12----12----15-13-12------------12- /---12----12----12----12--------14-12-11-12---- /-14----14----14----14------------------------- /---------------------------------------------- /---------------------------------------------- /------------------------------------ /------------------------------------ /---11-12--11-12--11-14-12-11--11-12- /-14-----14-----14-----------14------ /------------------------------------ /------------------------------------ /------------------------------------------- /---------12----12----15-13-12-------------- /-------12----12----12--------14-12-11-12--- /-----14----14----14------------------------ /------------------------------------------- /------------------------------------------- /--------------------------------------12-15-12- /-----------------------------12-13-15---------- /---11-12--11-12------11-12-14------------------ /-14-----14------12-14-------------------------- /---------------------------------------------- /---------------------------------------------- -------------------------------------- --------------------------------------| Repetimos otras dos veces lo que habíamos hecho antes, lo de "ya no queda una piedra en pie..." Durante el "no!! no!!" tocamos lo siguiente: /------------------------------------------ /------------------------------------------ /-------9-------7-------------------------- /-------9-------7--------2-4--2-----4b5---- /-7-7-7-7-5-5-5-5----2--5-------5-4-------- /------------------------------------------ x x x x x x /------------------------------------------------------------ /------------------------------------------------------------ /-------9-------7-------9-------7---------------------------- /-------9-------7-------9-------7--------2-4--2---4b5-------- X2 /-7-7-7-7-5-5-5-5-7-7-7-7-5-5-5-5----2--5------5-4----------- /------------------------------------------------------------ x x x x x x x x x x x x /------------------------------------------- /------------------------------------------- /-------9-------7--------5------------------ /-------9-------7--------5------------------ /-7-7-7-7-5-5-5-5--3-3-3-3---4-0-0-3-0-0-2--------- /------------------------------------------- x x x x x x x x x /------------------------------------------- /------------------------------------------- /-------9-------7-------------------------- /-------9-------7-------------------------- /-7-7-7-7-5-5-5-5--3--1-0-2------------ /------------------------------------------ x x x x x x x x x /----------------------------333333-222222-------------- /------------------------------------------- /-------9-------7--------5------------------ /-------9-------7--------5------------------ /-7-7-7-7-5-5-5-5--3-3-3-3------------ /------------------------------------------- x x x x x x x x x /------------------------------------------- /------------------------------------------- /-------9-------7-------------------------- /-------9-------7-------------------------- /-7-7-7-7-5-5-5-5----4--2------------------- /------------------------3-2---------------- x x x x x x x x x Eso sigue sonando durante el solo 4º Solo (6:07): /----------------------------------------- /----------------------------------------- /--------------------7-------------------- /-9-----7--------------10-9h10p9-7-------- /---9-10--7-9-10--7-9-------------10-9-10- /----------------------------------------- /----------------------------------- /----------------------------------- /----------------------------------- /----------------------------------- /-7-9-10--9-10---------------------- /-------------10-7-5-3-5-3-7-------- /----------------------------------------- /----------------------------------------- /--------------------7-------------------- /-9-----7--------------10-9h10p9-7-------- /---9-10--7-9-10--7-9-------------10-9-10- /----------------------------------------- /----------------------------------- /----------------------------------- /----------------------------------- /----------------------------------- /-7-9-10--9-10~-10~----------------- /-------------------/0-------------- /--------------------------------------------------- /-10b11b12-10----------10-11-13--12-15-12--------12- /-------------12-13-15--------------------15b-12---- /--------------------------------------------------- /-------------------------------------------------- /--------------------------------------------------- /--15-12b13b14-12b13b14-12b13b14--13b14b15^^---------- /------------------------------------------------------ /------------------------------------------------------ /------------------------------------------------------ /----------------------------------------------------- /------------------------------------------------------ /-19-22-19-22-19-22-19h22h19h22h19h22...- /---------------------------------------- /--------------------------------------- /--------------------------------------- /--------------------------------------- /--------------------------------------- /-15-17--18b19b20^^-20-22-20b22^^rasgueo en ascension- /------------------------------------------- /------------------------------------------- /-------------------------------------------- /------------------------------------------ /-------------------------------------------- outro(6:48): /-12-------------------------------- /---12--10-12----------------------- /-----12-----9-11-12---------------- /-------------------10-9------------ /----------------------------------- /----------------------------------- dos veces --------------------- --------------------- -9------------------- --9-----9------------- ---10-12----9-10----- ----------12-----9--- esto va 3 veces y ale se terminó. Pedazo disco La ley innata, el mejor que han sacado. Lo dicho, algo a: albertogefe@hotmail.com espero que os ayude.
Este fichero es trabajo propio de su transcriptor y representa su interpretación personal de la canción. El material contenido en esta página es
para exclusivo uso privado, por lo que se prohibe su reproducción o retransmisión, así como su uso para fines comerciales.

© LaCuerda.net · Aviso Legal · Privacidad