Acordes de Guitarra » A »Attaque 77 » Sexismo (Tab)

Sexismo
Attaque 77

Letras, Acordes y Tabs para Guitarra, Bajo y Ukulele

  • E              Bm
    Dia a dia aprendiendo a ser
    F#m                A
    Intento replantear mi manera de ver
    Que obsesiva es nuestra sociedad
    Clasificandose por su eleccion sexual
    
    F#m  G#m      C#m
    Con quien lo haces
                A           A7
    Francamente que importa
    
    E5                 B5
    Cuantas veces te escuche decir
    F#5             A5
    Puto maricon para insultar a gente
    Es que acaso todo gira en torno
    A la cavidad donde metes tu pene
    
    F#5  G#5       C#5
    
  • E             Bm
    Dia a dia aprendi el placer
    F#m                     A
    intento replantear mi manera de ver
    E                  Bm
    que obsesiva es nuestra sociedad
    F#m                      A
    clasificandose por su eleccion sexual
    F#m      G#m     C#m                 A
    con quien lo haces...francamente que importa
    E                       Bm
    Cuantas veces te escuche decir
    F#m                   A
    puto maricon para insultar a gente
    E                     Bm
    es que acaso todo gira en torno
    F#m                   A
    a la cavidad donde metes tu pene.
    
    F#m     G#m     C#m                    A
    
  • INTRO: E
    
    **(LIMPIO CON ACORDES NATURALES)
    E              Bm
    Dia a dia aprendiendo a ser
      F#m              A
    Intento replantear mi manera de ver
    Que obsesiva es nuestra sociedad
    Clasificandose por su eleccion sexual
    
    
    **PUENTE:
    F#m  G#m       C#m
    Con quien lo haces
                A           A7
    Francamente que importa
    
    
    **(DISTORSION CON QUINTAS Y PALM MUTTING, MENOS LA ULTIMA NOTA)
    E5                   B5
    
  • SOLO:
    
    e----------------------------------------------------|
    B-----------------------------------------------7----|
    G--9----11---13--11--9----7---9--11--9--7----6-----6-|
    D----------------------------------------------------|
    A----------------------------------------------------|
    E----------------------------------------------------|
    
    e--------------------------|
    B--------------------------|
    G--9--9--11----------------|
    D-------------11--9--7--9--|
    A--------------------------|
    E--------------------------|
    
    e------------------------------------------------|
    B-------------------------------------------7----|
    G--9---11---13--11--9--7--9--11--9--7----6-----6-|
    D------------------------------------------------|
    A------------------------------------------------|
    E------------------------------------------------|
    
    e---------------------------|
    B----------------9--10------|
    G-6/11--11-11-11--------9~--|
    D---------------------------|
    A---------------------------|
    E---------------------------|
  • solo
    
    e--0-2-4p2-0----------------2--------2---------0-2-4p2-0-
    B---------------3-5-7p5-3-2---2-5-5----2-0---0-----------
    G------------------------------------------2-------------
    
    
    e--------------2-----7b--9h7---7h4---
    B--3-5-7p5-3-2---2-----------9-----7-
    G------------------------------------
    
    El final de 7h4 no se si esta bien
    ..no me suena ..pero creo q es asi..
  • +
    ¡Colabora con nosotros!
    Envíanos tu versión de esta canción

Letra de Sexismo
Dia a dia aprendi el placer
intento replantear mi manera de ver
que obsesiva es nuestra sociedad
clasificandose por su eleccion sexual
con quien lo haces...francamente que importa
Cuantas veces te escuche decir
puto maricon para insultar a gente
es que acaso todo gira en torno
a la cavidad donde metes tu pene.
con quien lo haces...francamente que importa
Si vas a hablar con mi corazon
o acaso con mi sexualidad...preguntate
mira mis ojos y ve quien soy
cuando me hablas adonde miras...cuestionate
Que venis a hablar de lo macho que sos
y todas las mujeres con que te acostas
por mi podes garcharte a un erizo de mar
me importa una mierda el orgullo gay
y en tu culo vos si queres te metes
un trasatlantico si es tu propiedad al fin
con quien lo haces...francamente que importa
Si vas a hablar con mi corazon
o acaso con mi sexualidad...preguntate
mira mis ojos y ve quien soy
cuando me hablas adonde miras...cuestionate.




[Sexismo chords][Sexismo cifra]
© LaCuerda.net · aviso legal · privacidad · es · en · pt · contacto
DINAMICO