Acordes de Guitarra » A »Attaque 77 » Ojos de perro (Tab)

Ojos de perro
Attaque 77

Letras, Acordes y Tabs para Guitarra, Bajo y Ukulele

  • E - A - B - A
    
    
    E                       A   G#
    No tengo bandera ni nación
    C#m                         A
    no hablo tu idioma, soy un animal.
    E                            A   G#
    Vivo y muero en cualquier lugar
    C#m                           A
    tengo sexo con quien quiero, si se da
    
    
    (ESTRIBILLO)
    
              E       B           A
    Porque yo soy una especie diferente a vos
              E        B           A
    y cuando quiero me voy sin una explicación
           C#m                        B
    
  • E |--------------------------------------
    B |--------------------------------------
    G |--9-8-----9-8-----9-8---9-8-----------
    D |------9-------9-------9-----9-9/11----
    A |--------------------------------------
    E |--------------------------------------
    
    E |--------------------------------------
    B |---------------------------11---------
    G |--9-8-----9-8-----9-8---9---------9---
    D |------9-------9-------9--------9------
    A |--------------------------------------
    E |--------------------------------------
    
    1)
    Em                       A
    No tengo bandera ni nación
    C#                         A     
    no hablo tu idioma, soy un animal.
    Em                            A
    
  • 'E                      A     G#m
    No tengo bandera ni nación,
     C#                       A
    no hablo tu idioma soy un animal.
    E                            A  G#
    Vivo y muero en cualquier lugar,
     C#                             A
    tengo sexo con quien quiero, si se da.
    
             E         B        A
    Porque yo soy una especie diferente a vos  |
    y cuando quiero me voy sin una explicación |x2
           C#m                         B       |
    No necesito reglas, no necesito moral      |
    
    
    E                       A    G#m        1ra. Guitarra
    Con el corazón abierto voy..      -->4-|--6-7-9--6-------|
                                         3-|-----------9-7---|
     C#                       A
    
  • Esta es la intro y el solo de ojos de perro
    
    Intro
    
    |---------------------------------|------------------|
    |---------------------------------|------------------|
    |-9-8-----9-8-----9-8-----9-8-----|-9-8-----9-8------|
    |-----9-------9-------9-------9-11|-----9-------9----|
    |---------------------------------|------------------|
    |---------------------------------|------------------|
    
    |----------------------------------------------------|
    |----------12----------------------------------------|
    |-9-8----9----9-13vvv--------------------------------|
    |-----9----------------------------------------------|
    |----------------------------------------------------|
    |----------------------------------------------------|
    
    
    Solo
    
    
    |----------------------------|------|----------------|
    |----------------------------|------|-------12b------|
    |---9--11--9---8vvv----8--8--|-9-8-9|-8-9-8----------|
    |-9------------------9------9|------|----------------|
    |----------------------------|--
  • E5             X-7-9-9-x-x
    A5            5-7-7-x-x-x
    G#5             4-6-6-x-x-x
    C#5              9-11-11-x-x-x    ó    x-4-6-6-x-x   
    B             7-9-9-x-x-x
    D              10-12-12-x-x-x
    
    x= no tocar
    SE TOCAN SOLAMENTE LAS 3 CUERDAS del acorde
    
    Para los que les guste el rasguido o arpegiar: el Sol y el Do son sostenidos  menores.
    
    s = slide
    v= bend
    
    Intro:    E5   B5  C#5  A5   ( x2 )
    
    E |---------------------------------------------|
    B |---------------------------------------------|
    G |--8s9-8-----8s9-8-----8s9-8---8s9-8----------|
    
  • +
    ¡Colabora con nosotros!
    Envíanos tu versión de esta canción

Letra de Ojos de perro
No tengo bandera ni nación
no hablo tu idioma, soy un animal.
Vivo y muero en cualquier lugar
tengo sexo con quien quiero, si se da
(ESTRIBILLO)
Porque yo soy una especie diferente a vos
y cuando quiero me voy sin una explicación
no necesito reglas, no necesito moral
Con el corazón abierto voy
corro el riesgo si me quieren lastimar
veo el aura, leo tu intención
tengo instinto y se cuando debo ladrar
Por que yo soy una especie diferente a vos
y cuando quiero me voy sin una explicación
no necesito reglas, no necesito moral.
No puedo entender a esta humanidad
seres racionales y el poder los hace matar
(ESTRIBILLO) x2
Porque tengo ojos de perro
porque veo como perro
porque pienso como perro,
soy un perro...soy un perro
porque amo como perro
y te huelo como perro
y te cojo como perro,
soy un perro...soy un perro
Porque tengo ojos de perro,
porque veo como perro,
porque pienso como perro,
soy un perro, soy un perro...
Porque siento como perro,
mis amigos son los perros,
y me junto con los perros
soy un perro...soy un perro...
Papapapapapapapa
papapapapapapapa
papapapapapapapa
papapapapapapapa...
lol




[Ojos de perro chords][Ojos de perro cifra]
© LaCuerda.net · aviso legal · privacidad · es · en · pt · contacto