Tablatura para Guitarra de Attaque 77: Ojos de perro
Conexión · Inscripción
Letras y Acordes
Pantalla Completa
Imprimir
Versión Texto
Añadir Favorito
Otras Versiones

Mostrar Diagramas
Desfile Automático
Manipular Acordes
Formato del Texto


Ojos de perro(TAB)

Attaque 77

calidad:
at771362
AUTOR: Pertusi, Martínez
ALBUM: Inhumano (2003)
Enviado por Juan, basado en Francisco
Intro

1|---------------------------------|------------------|
2|---------------------------------|------------------|
3|-9-8-----9-8-----9-8-----9-8-----|-9-8-----9-8------|
4|-----9-------9-------9-------9-11|-----9-------9----|
5|---------------------------------|------------------|
6|---------------------------------|------------------|

1|----------------------------------------------------|
2|----------12----------------------------------------|
3|-9-8----9----9-13vvv--------------------------------|
4|-----9----------------------------------------------|
5|----------------------------------------------------|
6|----------------------------------------------------|


'E A G#m No tengo bandera ni nación,
C# A no hablo tu idioma soy un animal.
E A G# Vivo y muero en cualquier lugar,
C# A tengo sexo con quien quiero, si se da.
E B A Porque yo soy una especie diferente a vos | y cuando quiero me voy sin una explicación |x2
C#m B | No necesito reglas, no necesito moral |
E A G#m 1ra. Guitarra Con el corazón abierto voy.. -->4-|--6-7-9--6-------| 3-|-----------9-7---|
C# A Corro el riesgo si me quieren lastimar.--> 5-|--13vv------------|
E A G# 4-|------13-11--13vv-| Veo el aura, leo tu intención, 3-|-----------14-----|
C# A tengo instinto y sé cuando debo ladrar.
E B A Porque yo soy una especie diferente a vos | y cuando quiero me voy sin una explicación |x2
C#m B | No necesito reglas, no necesito moral |
A B No puedo entender a esa humanidad,
C# D A seres racionales y el poder los hace matar.. ¡Eh! -Solo-
E B A Porque yo soy una especie diferente a vos | y cuando quiero me voy sin una explicación |x2
C#m B | No necesito reglas, no necesito moral |
E B Porque tengo ojos de perro, porque veo como perro
C# A porque pienso como perro, soy un perro
E B Porque amo como perro y te huelo como perro
C# A y te cojo como perro, soy un perro.
E B Porque siento como un perro, mis amigos son los perros
C# A y me junto con los perros, soy un perro' Esta es la primera del nuevo compac q les paso cuando tenga tiempo le mando las demás.. saludos, fran.. y aguante LA ROCKOLA ---------- Te corregí y también agregue un par de cosas. Saludos y aguante 2 minutos, cadena, attaque, Misfits, RATM.. etc. Ju4n.
Este fichero es trabajo propio de su transcriptor y representa su interpretación personal de la canción. El material contenido en esta página es
para exclusivo uso privado, por lo que se prohibe su reproducción o retransmisión, así como su uso para fines comerciales.

© LaCuerda.net · Aviso Legal · Privacidad