Tablatura para Guitarra de Attaque 77: Ojos de perro
Conexión · Inscripción
Letras y Acordes
Pantalla Completa
Imprimir
Versión Texto
Añadir Favorito
Otras Versiones

Mostrar Diagramas
Desfile Automático
Manipular Acordes
Formato del Texto


Ojos de perro(TAB)

Attaque 77

calidad:
at771364
AUTOR: Pertusi, Martínez
ALBUM: Inhumano (2003)
Enviado por santiago
Esta es la intro y el solo de ojos de perro

Intro

|---------------------------------|------------------|
|---------------------------------|------------------|
|-9-8-----9-8-----9-8-----9-8-----|-9-8-----9-8------|
|-----9-------9-------9-------9-11|-----9-------9----|
|---------------------------------|------------------|
|---------------------------------|------------------|

|----------------------------------------------------|
|----------12----------------------------------------|
|-9-8----9----9-13vvv--------------------------------|
|-----9----------------------------------------------|
|----------------------------------------------------|
|----------------------------------------------------|


Solo


|----------------------------|------|----------------|
|----------------------------|------|-------12b------|
|---9--11--9---8vvv----8--8--|-9-8-9|-8-9-8----------|
|-9------------------9------9|------|----------------|
|----------------------------|------|----------------|
|----------------------------|------|----------------|

|------------|---------------------------------------|
|-13b-13b-13-|-10-10-9-10--8b-8-8b-8-8p7-------------|
|------------|---------------------------7--9--8-----|
|------------|------------------------------------9--|
|------------|---------------------------------------|
|------------|---------------------------------------|

|----------------------------------------------------|
|---12---------12-----12-----12-----12-----12--------|
|-9----9---8h9----8h9----8h9----8h9----8h9-----------|
|----------------------------------------------------|
|----------------------------------------------------|
|----------------------------------------------------|


Bueno, ojala que les haya servido cualquier duda,consulta,
comentario,error,etc, escribanme a szg_@hotmail.com
Este fichero es trabajo propio de su transcriptor y representa su interpretación personal de la canción. El material contenido en esta página es
para exclusivo uso privado, por lo que se prohibe su reproducción o retransmisión, así como su uso para fines comerciales.

© LaCuerda.net · Aviso Legal · Privacidad