Letra y Acordes de Attaque 77: Ojos de perro
Conexión · Inscripción
Letras y Acordes
Pantalla Completa
Imprimir
Versión Texto
Añadir Favorito
Otras Versiones

Mostrar Diagramas
Desfile Automático
Manipular Acordes
Formato del Texto


Ojos de perro

Attaque 77

calidad:
at771363
AUTOR: Pertusi, Martínez
ALBUM: Inhumano (2003)
Enviado por Ignacio
Intro:
E |--------------------------------------
B |--------------------------------------
G |--9-8-----9-8-----9-8---9-8-----------
D |------9-------9-------9-----9-9/11----
A |--------------------------------------
E |--------------------------------------

E |--------------------------------------
B |---------------------------11---------
G |--9-8-----9-8-----9-8---9---------9---
D |------9-------9-------9--------9------
A |--------------------------------------
E |--------------------------------------

1)
Em A No tengo bandera ni nación
C# A no hablo tu idioma, soy un animal.
Em A Vivo y muero en cualquier lugar
C# A tengo sexo con quien quiero, si se da 2)
Em B A Porque yo soy una especie diferente a vos
Em B A y cuando quiero me voy sin una explicación
C# B no necesito reglas, no necesito moral 1) Con el corazón abierto voy corro el riesgo si me quieren lastimar veo el aura, leo tu intención tengo instinto y se cuando debo ladrar 2) Por que yo soy una especie diferente a vos y cuando quiero me voy sin una explicación no necesito reglas, no necesito moral.
C# Em No puedo entender a esta humanidad
C# Em seres racionales y el poder los hace matar 3)
Em Porque tengo ojos de perro
B porque veo como perro
A C# porque pienso como perro, soy un perro
Em porque amo como perro
B y te huelo como perro
A C# y te cojo como perro, soy un perro 3) Porque tengo ojos de perro porque veo como perro porque pienso como perro, soy un perro porque siento como perro mis amigos son los perros y me junto con los perros soy un perro soy un perro… Cualquier sugerencia a nech_77@hotmail.com
Este fichero es trabajo propio de su transcriptor y representa su interpretación personal de la canción. El material contenido en esta página es
para exclusivo uso privado, por lo que se prohibe su reproducción o retransmisión, así como su uso para fines comerciales.

© LaCuerda.net · Aviso Legal · Privacidad