Tablatura para Bajo de la Renga: Montaña Roja
Conexión · Inscripción
Letras y Acordes
Pantalla Completa
Imprimir
Versión Texto
Añadir Favorito
Otras Versiones

Mostrar Diagramas
Desfile Automático
Formato del Texto


Montaña Roja(BAJ)

la Renga

calidad:
reng0953
AUTOR: Gustavo "chizzo" Nápoli
ALBUM: Truenotierra (2006)
Enviado por Franco
Intro/ es tal cual ves…
G|----------------------------
D|----------------------------
A|---3-4-5-4-3-----3-4-5-3---
E|-3-----------3-3------------(x12)

La montana roja…
G-----------------------------
D-----------------------------
A|--2-2-2-2/0—-0/3-2--------
E-----------------------------

Llevara de mi lo que queda…
G------------------------------------
D------------------------------------
A|-2-2-2-2/0—-0/3-22222222—3-2-0-2-3-
E------------------------------------

Guitarra/ yo pronto te vi creer...
G---------------------------------
D---------------------------------
A|-2-2-0-0-3/2-2-0-0-3------------
E---------------------------------

Abrasado fuerte adonde voy...
G-----------------------------
D-----------------------------
A|--2-2-2-2/0—-0/3-2--------
E-----------------------------

Llevara de mi lo que queda…
G------------------------------------
D------------------------------------
A|-2-2-2-2/0—-0/3-22222222—3-2-0-2-3-
E------------------------------------

Solo de guitarra
G|----------------------------
D|----------------------------
A|---3-4-5-4-3-----3-4-5-3---
E|-3-----------3-3------------(x12)

La montana roja…
G-----------------------------
D-----------------------------
A|--2-2-2-2/0—-0/3-2--------
E-----------------------------

Llevara de mi lo que queda…
G------------------------------------
D------------------------------------
A|-2-2-2-2/0—-0/3-22222222—3-2-0-2-3-
E------------------------------------




Abrasado fuerte adonde voy...
G-----------------------------
D-----------------------------
A|--2-2-2-2/0—-0/3-2--------
E-----------------------------

Llevara de mi lo que queda…
G------------------------------------
D------------------------------------
A|-2-2-2-2/0—-0/3-22222222—3-2-0-2-3-
E------------------------------------

Hacia las cumbreeeeeees
G-----------------------------
D-----------------------------
A|---3-2-0-2--3-2-0-2---------
E|-3--------------------------(x4)

Final
G-----------------------------
D-----------------------------
A|----------------------------
E|--3~~------3----------------

no es dificil espero que se entienda nos vemos aguante el ROCK¡¡¡
Este fichero es trabajo propio de su transcriptor y representa su interpretación personal de la canción. El material contenido en esta página es
para exclusivo uso privado, por lo que se prohibe su reproducción o retransmisión, así como su uso para fines comerciales.

© LaCuerda.net · Aviso Legal · Privacidad