Tablatura para Guitarra de la Renga: La furia de la bestia rock
Conexión · Inscripción
Letras y Acordes
Pantalla Completa
Imprimir
Versión Texto
Añadir Favorito
Otras Versiones

Mostrar Diagramas
Desfile Automático
Manipular Acordes
Formato del Texto


La furia de la bestia rock(TAB)

la Renga

calidad:
reng1052
AUTOR: Gustavo Napoli
ALBUM: Algun Rayo (2010)
Enviado por Carlos
Esta es la tab del primer solo que vi que en la
transcripcion anterior no esta.

|-------------------------------------------------------------------------
|---------------------------------------------------1010-1212-1010-12-----
|------------------5-4-----4-5-7s9-9999-7-5-7s9-99--1010-1212-1010-12-----
|-----7---7---7s9------7~-------------------------------------------------
|-5-7---5---5-------------------------------------------------------------
|-------------------------------------------------------------------------

|-------------------------------------------------------------------------
|-------------------------------------------------------------------------
|------9-7h9p7-7-5h7p7-5-4h5p4------------12h14-12h14p12--14s16-1414------
|------------------------------7~---12h14---------------------------------
|-5-7---------------------------------------------------------------------
|-------------------------------------------------------------------------

|-------------------------------------------------------------------------
|-------------------15-----15---------------------------------------------
|-------12h14-12h14----14-----14----------12h14-12h14p12--14s16-1414------
|-12h14-----------------------------12h14---------------------------------
|-------------------------------------------------------------------------
|-------------------------------------------------------------------------

|-------------10h12-12~-----15------15------15------15--------------------
|--12h13-13~-------------------15------15------15------15-----------------
|-------------------------------------------------------------------------
|-------------------------------------------------------------------------
|-------------------------------------------------------------------------
|-------------------------------------------------------------------------

Bueno, eso es lo que consegui sacar de oido, fijense bien que al principio
hace palm muting en la quinta y cuarta cuerdas, tambien fijense los tiempos
y los vibratos, que les suene bien ;)
Este fichero es trabajo propio de su transcriptor y representa su interpretación personal de la canción. El material contenido en esta página es
para exclusivo uso privado, por lo que se prohibe su reproducción o retransmisión, así como su uso para fines comerciales.

© LaCuerda.net · Aviso Legal · Privacidad