Tablatura para Guitarra de la Renga: El Revelde
Conexión · Inscripción
Letras y Acordes
Pantalla Completa
Imprimir
Versión Texto
Añadir Favorito
Otras Versiones

Mostrar Diagramas
Desfile Automático
Manipular Acordes
Formato del Texto


El Revelde(TAB)

la Renga

calidad:
reng0195
AUTOR: Gustavo F. Nápoli
ALBUM: Insorportablemente Vivo (1998)
Enviado por Franco
Esta es mi transcripción del solo de saxo de El Rebelde
pasado a guitarra. Creo que suena bastante bien. Espero
que les sirva. Saludos y aguante La Renga!!

E|-------------------------|-------------------------|
B|-------------------------|-------------------------|
G|-------------------9-----|-------12----------12/14-|
D|-9--9--12----9--9--------|-9--9--------9-----------|
A|-------------------------|-------------------------|
E|-------------------------|-------------------------|

E|-------------------------|-------------------------|
B|-------------------------|-------------------------|
G|-------12/14-------12----|-14----------------------|
D|-------------------------|-------------------------|
A|-------------------------|-------------------------|
E|-------------------------|-------------------------|

E|-------------------------|-------------------------|
B|-------------------------|-------------------------|
G|-------12----14----14/15|14-----12----------------|
D|-14----------------------|-------------14----14----|
A|-------------------------|-------------------------|
E|-------------------------|-------------------------|

E|-------------------------|-------------------------|
B|-------------15/17-------|-------------------------|
G|-------------------------|-------------------------|
D|-------------------------|-------------------------|
A|-------------------------|-------------------------|
E|-------------------------|-------------------------|

E|-------------------------|-------------------------|
B|-17/19-17----------------|-------------------------|
G|-------------15h16-------|-------------14----15----|
D|-------------------17----|-14----17----------------|
A|-------------------------|-------------------------|
E|-------------------------|-------------------------|

E|-------------------------|-------------------------|
B|-------------------------|-------------------------|
G|-15----14----------------|-------------------------|
D|-------------17----14----|-------------14----17----|
A|-------------------------|-------------------------|
E|-------------------------|-------------------------|

E|-------------------------|-------------------------|
B|-------------------------|-------------------------|
G|-------------14----14h15p|14-----------------------|
D|-14----17----------------|-------17----14----14----|
A|-------------------------|-------------------------|
E|-------------------------|-------------------------|

E|-------------------------|-------------------------|
B|-16/1716/17-------------|-------------------------|
G|-------------------14/15|14-----------------------|
D|-------------------------|-------17----14----14----|
A|-------------------------|-------------------------|
E|-------------------------|-------------------------|

Versión Guitar Pro, TuxGuitar y .TAB:
liberandotumente.com.ar/wp-content/uploads/La-Renga-El-Rebelde-solo.zip
Este fichero es trabajo propio de su transcriptor y representa su interpretación personal de la canción. El material contenido en esta página es
para exclusivo uso privado, por lo que se prohibe su reproducción o retransmisión, así como su uso para fines comerciales.

© LaCuerda.net · Aviso Legal · Privacidad