Acordes de Guitarra » R »la Renga » El Cielo del Desenga¤o (Tab)

El Cielo del Desenga¤o
la Renga

Letras, Notas, Punteos, Tablaturas y Acordes de Guitarra (Tabs & Chords)

  • Letra y Acordes
    Em          G               A
      Como esas nubes que ahora ves,
    Em          G             A      
      que van regando de vida los campos,
    Em       G        A      
      así lloraba de vez en vez,
    Em       G            A            
      la tristeza del desengaño.
    
    
    Haberse visto en la soledad,
    esa que aman los sabios,
    hoy se ha nublado para llorar,
    todo el cielo que te he confiado.
    
    N.C.
    Como un ciego...
    Em            G       A      Em      
      que apunta al ruido de mi cabeza,
          C           G                  Em
    
  • Letra y Acordes
    e|----------------------------------
    B|----------------------------------
    C|----------------------------------
    D|----------------------------------
    A|--7---7-6-5-----------------------
    E|-------------7-6-5-3/2-0----------
    Em          G            A
    Como esas nubes que ahora ves,
    Em           G              A
    que van regando de vida los campos,
    Em         G         A
    así lloraba de vez en vez,
    Em        G           A
    la tristeza del desengaño.
    
    Haberse visto en la soledad,
    esa que aman los sabios,
    hoy se ha nublado para llorar,
    todo el cielo que te he confiado.
    
    
  • Tablatura
    SOLO DE GUITARRA
    
    e-----------------------------------------------------------------------
    B-------------------------------------------7-8-7-----------------------
    G---------------0-----5-4p2-4--2----7--9--9-------9-7--7--7-7-6-6p4-6-6-
    D-------2-0-2-4---4-----------------------------------------------------
    A-2-1-2-----------------------------------------------------------------
    E-----------------------------------------------------------------------
          
                                                                            
    e----------------------5-7---10-7-10s12-12-10-9-10-9-9h10-9-9-8-7-8-7-5-7/mantiene estirada
    B-7-7-7h8-7-5-7--8-7-8---------------------------------------------------------------
    G------------------------------------------------------------------------------------
    D------------------------------------------------------------------------------------
    A------------------------------------------------------------------------------------
    E------------
  • Tablatura
    d|---------------------------|
    A|---------------------------|
    F|---------------------------|
    C|-0^2--2-1-0----------------|
    G|-------------2-1-0---------|  
    D|--------------------0------|
     
    Arpegios con base en 
    Em          G               A        A#
      Como esas nubes que ahora ves,
    Em          G              A            A#
      que van regando de vida los campos,
    Em       G        A          A#
      así lloraba de vez en vez,
    Em       G            A            
      la tristeza del desengaño.
    
    E5          G5       A5    A#5
    Haberse visto en la soledad,
    E5          G5       A5    A#5
    
  • Tablatura
    d|---------------------------|
    A|---------------------------|
    F|---------------------------|
    C|-0-2--2-1-0----------------|
    G|-------------2-1-0---------|
    D|--------------------0------|
    
    (quedan mejores arrepegiados)
    MIm          SOL               LA      A#
      Como esas nubes que ahora ves,
    MIm          SOL            LA           A#
      que van regando de vida los campos,
    MIm       SOL        LA           A#
      así lloraba de vez en vez,
    MIm       SOL            LA
      la tristeza del desengaño.
    
    [MIm,SOL,LA]
    Haberse visto en la soledad,
    esa que aman los sabios,
    
  • Tab p/Bajo
    INTRO: chizzo
    
    
    riff 1: 'haberse visto..'
    1)----------------------------------------|
    2)----------------------------------------|
    3)----------------------------------------|
    4)-0--0--0-0-3--3--3-3--5-5--5-5-5-5-5/3--|
    
    riff 2: 'como un ciego..'
    1)-------|---------------------|
    2)-------|---------------------|
    3)-------|---------------------|
    4)--0-0--|--3--5--0-0-0-0-0-0--|
    
    riff 3: 'como todoo..'
    1)-----------------------------------------|
    2)-----------------------------------------|
    3)--3-3-3----------------------------------|
    4)----------5-5-5---3-3-3-3-3-3-3-3-3-3-3--|
    
    repite riff 2: 'hacia el avismo..'
    1)---------------------|
    2)---------------------|
    3)---------------------|
    4)--3--5--0-0-0-0-0-0--|
    
    riff 4: 'y las lagrimas..'
    1)--------------------|
    2)--------------------|
    3)--5--5-5-5-5--7--5--|
    4)--------------------|
    
    repite el riff 3
    
    durante el punteo se hace todo lo mismo desde el principio
    espero q les sirva de algo... suerte!
  • +
    ¡Colabora con nosotros!
    Envíanos tu versión de esta canción

Letra de El Cielo del Desenga¤o
Como esas nubes que ahora ves,
que van regando de vida los campos,
así lloraba de vez en vez,
la tristeza del desengaño.
Haberse visto en la soledad,
esa que aman los sabios,
hoy se ha nublado para llorar,
todo el cielo que te he confiado.
Como un ciego...
que apunta al ruido de mi cabeza,
como todo, como siempre, como es sin ver...
Hacia el abismo de sed,
que no calma el agua, ni las lágrimas,
como todo, como siempre, como es sin ver.
(la mayor parte del solo está en la escala menor natural de E)
Como esas nubes que ahora ves,
que van regando de vida los campos,
así lloraba de vez en vez,
todo el cielo del desengaño.



© LaCuerda.net · Aviso Legal · Privacidad
DINAMICO