Acordes de Guitarra » R »la Renga » A tu lado (Tab)

A tu lado
la Renga

Letras, Acordes y Tabs para Guitarra, Bajo y Ukulele

  • E5
    Pobreza en los estómagos
          C5                    RIFF1
    Más pobreza en la cabeza
    E5                            C5          RIFF1
    No queda nada a salvo de este gran error
    E5
    El mundo sigue así
          C5                 RIFF1
    Tan terrible y abrumado
    E5                          C5               RIFF2
    Que sentirte a mi lado me hará mucho mejor
    C5                       G5
    Saltemos este muro y desaparezcamos
    D5                      C5
    en un lugar seguro  dejaremos el dolor
    G5          D5
    No, no da refugio el cielo
           C5
    En una noche como hoy, de fuego
    
  • e|--------
    B|--------
    G|--------
    D|--------
    A|--------
    E|-5-3-0--
    
    Riff2: (La Sol Mi Do)
    e|---------
    B|---------
    G|---------
    D|---------
    A|-------3-
    E|-5-3-0---
    
    Riff3:   (SI DO RE)5
    e|--------
    B|--------
    G|--------
    D|--4-5-7-
    
  • solo:
    
    |-12-12-12-12-12-12-12--12-12-12-12-12-12-12---15-15-15-15-15--
    |-11-11-11-11-11-11-11--11-11-11-11-11-11-11---14-14-14-14-14--
    |--------------------------------------------------------------
    |--------------------------------------------------------------
    |--------------------------------------------------------------
    |--------------------------------------------------------------
                      esto va a fondo y vastantes veces,acelerando
    -15-15-15-15-15-15----------------------------------------
    -14-14-14-14-14-14---14-14-14-14-17-14-19-14-17-14-19-14--
    ----------------------------------------------------------
    ----------------------------------------------------------
    ----------------------------------------------------------
    ----------------------------------------------------------
    
    -------------------------------------------------------------
    -17-17-17-17-17-17-----------------14-------14------------14-
    -16b16b16b16b16b16b-16br14------15----16-17----15-16-17-15---
    -----
  •    Estiradas>>                                          B
       Estirar y bajar>>>                                   ba
       Slide>>>                                             s
       Sonidos armónicos>>>                                 <>
       Ligados ascendentes>                                 h
       Ligados descendentes>                                p
       Se mantiene la estirada>                             /
       Baja LA estirada                                     //
       Tremolo                                              *  
       Toca la nota siguente con la estirada mantenida      b/
    
    E  --12-12-12-12-12-12-12-12-12-12-12-12-----12-12-12-12-12-12-12-12-12-12-12-12-----------
    B  --11-11-11-11-11-11-11-11-11-11-11-11-----11-11-11-11-11-11-11-11-11-11-11-11-----------
    G  ----------------------------------------------------------------------------------------
    D  ----------------------------------------------------------------------------------------
    A  ----------------------------------------------------------------------------------------
    E  ----------------------------------------------------------------------------------------
    
    E  --15-15-15-15-15-15-15-15-15-15-15-15-----15-15-15-15-15-15-15-15-15-15-15-15-----------
    B  --14-14-14-14-14-14-14-14-14-14-14-14-----14-14-14-14-14-14-14-14-14-14-14-14-----------
    
  •                ***intro****:
     G--------------------------------------
     D--------------------------------------
     A---------------------3-3-3-3-3--------     x3
     E-0-0-0-0-0-0-0-0-0-0-----------5-3-0--
    
    
     G---------------------------------------------
     D---------------------------------------------
     A---------------------3-3-3-3-3-----3-3-3-3-3-3
     E-0-0-0-0-0-0-0-0-0-0-----------5-3------------
    
    
     G---------------------------------------------
     D---------------------------------------------
     A--------------------2--4-5-5-5-5-5--3-3-3-3-3
     E-3-3-3-3-3-3-3-3-3---------------------------
    
    
                       estribillo:
    
     G---------------------------------------------
     D---------------------------------------------
     A-----------------------5-5-5-5-5--3-3-3-3-3--  X2
     E-3-3-3-3-3-3-3-3-3---------------------------
    
     G----------------------------------------------------------
     D----------------------------------------------------------
     A-----------------------5-5-5-5-5--3-3-3-3-3-22222------
  • +
    ¡Colabora con nosotros!
    Envíanos tu versión de esta canción

Letra de A tu lado
Pobreza en los estómagos
Más pobreza en la cabeza
No queda nada a salvo de este gran error
El mundo sigue así
Tan terrible y abrumado
Que sentirte a mi lado me hará mucho mejor
Saltemos este muro y desaparezcamos
en un lugar seguro dejaremos el dolor
No, no da refugio el cielo
En una noche como hoy, de fuego
Vaga tu alma en celo
En su trampa el cazador sereno va a estar esperándote.
En esta soledad
La que asila a tanta gente
El que salve su vida, la perderá
El mundo tan feliz, a su mal me ha acostumbrado
Que sentirme a tu lado me hará mucho mejor
Saltemos este muro y desaparezcamos
en un lugar seguro dejaremos el dolor
No, no da refugio el cielo
En una noche como hoy, de fuego
Vaga tu alma en celo
En su trampa el cazador sereno va a estar esperándote
Al fin seremos todos
Después que sólo seas uno
Es un arte muy difícil cuando domina el temor
El mundo tan hostil, nos lleva decapitados
Que sentirte a mi lado me hará mucho mejor
Saltemos este absurdo y desaparezcamos
En un lugar seguro dejaremos el dolor
No, no da refugio el cielo
En una noche como hoy, de fuego
Vaga tu alma en celo
En su trampa el cazador sereno va a estar esperándote.
RIFF1
RIFF2

cualquier duda,a mi mail.ché




[A tu lado chords][A tu lado cifra]
© LaCuerda.net · aviso legal · privacidad · es · en · pt · contacto