Acordes de Guitarra » P »Patricio Rey y sus Redonditos de Ricota » Yo caníbal (Tab)

Yo caníbal
Patricio Rey y sus Redonditos de Ricota

Letras, Acordes y Tabs para Guitarra, Bajo y Ukulele

  • Intro: [ RE5 SIb ] x 4   [ LAm LA-sus4 Sib ] x 2
    
    RE5                       SIb    RE5        SIb
    No se entiende un menú pero la salsa abunda.
    Soy un gourmet que huele eternamente mal.
    LAm
    Viejas compotas que no dan respiro
    SIb
    Al caníbal que hay en mí,
    LAm                                 SIb
    Que no es bien recibido en un banquete así.
    
    Se amasan las fortunas, se cargan los bolsillos.
    De presa seca, de oro falso, de vermouth
    LAm
    Me acaban el cerebro a mordiscos
    SIb
    Bebiendo el jugo de mi corazón
    LAm                         SIb
    Y me cuentan cuentos al ir a dormir.  Ooh...
    
  •     D                  Bb
    E|------------------------10-10-10---|--|
    B|---------------------/--11-11-11-/-|--|
    G|-2-------------2-3-2-/--10-10-10-/-|x4|
    D|-0--0-0-0-0-0--0-0-0---------------|--|
    A|-----------------------------------|--|
    E|-----------------------------------|--|
         PM......                              PM......
    
    Entra la batería:
       D                    Bb
    |-------------------------10-10-10----|--|
    |----------------------/--11-11-11-/--|--|
    |-2--------------2-3-2-/--10-10-10-/--|x4|
    |-0---0-0-0-0-0--0-0-0----------------|--|
    |-------------------------------------|--|
    |-------------------------------------|--|
    
      Am                           Bb
    E|-0-0---0------|-----------------------------------|
    
  •    D5       D6
    e-------  e-------
    B-------  B-------
    G-------  G-------
    D---7---  D---8---
    A---5---  A---5---
    E-------  E-------
    
       Bb       Am
    e---6---  e---5---
    B---6---  B---5---
    G---7---  G---5---
    D---8---  D---7---
    A---8---  A---7---
    E---6---  E---5---
    
    
    Ahí va...
    
    Intro
    
  •     RE                  SIb                 RE                 SIb
    E|---------------------------------|--|-----------------------------------|--|
    B|-------------------/--11-11-11-/-|--|--------------------/--11-11-11-/--|--|
    G|-2-----------2-3-2-/--10-10-10-/-|x4|-2------------2-3-2-/--10-10-10-/--|x4|
    D|-0--0-0-0-0--0-0-0---------------|--|-0---0-0-0-0--0-0-0----------------|--|
    A|---------------------------------|--|-----------------------------------|--|
    E|---------------------------------|--|-----------------------------------|--|
         PM......                              PM......
    BAJO:
    G|---------------------------------|--|-----------------------------------|--|
    D|------------%--------------------|--|-----------------------------------|--|
    A|---------------------------------|--|-5-5-5-5-5-5-5-5--5-/--------------|--|
    E|---------------------------------|--|-----------------------6--6--6-----|--|
    
    sigue....
     LAm                           SIb
    E|-0-0-0-0-0--0------|-----------------------------------|-------|---------------------|---
    B|-1-1-1-1-1----1----|-----------------------------------|-------|---------------------|---
    G|-2-2-2-2-2------(2)|-(3)-3-3-3-3-3-3-3--3---3--3-3-3---|--LAm--|------SIb------------|---
    D|-2-2-2-2-2---------|-(3)-3-3-3-3-3-3-3--3---3--3-3-3---|-------|---------------------|---
    
  •     D             D         Bb
    E|-------------------------------------|
    B|-------------------------------------|
    G|--2-----2---2---3---2-----11-11-11/s-|
    D|--0-0-0-0-0-0-0-0-0-0-0---10-10-10/s-|
    A|-------------------------------------|
    E|-------------------------------------|
    
    
    Riff 2
           Am                    Bb                 Am
    E|------------------0--------------------------0---0----0-1/0-----1/0----|
    B|--------------------1--------------------------1---1--------3-------3--|
    G|----------------------2---------------------------------------3------3-|
    D|----2-------------------2-3-3-3-3-3-3-----3----------------------------|
    A|----0-0-0-0-0-0-----------1-1-1-1-1-1-0-1-1----------------------------|
    E|-----------------------------------------------------------------------|
    
    
    Solo
    
  •           Dm      Bb      Dm      Bb
    e|-5------------------------------------
    B|-5------------------------------------
    G|-7------------------------------------
    D|-7------8-7------------7-7--7-8-7-----
    A|-5-5555555555555555555555555555555555-
    E|--------------------------------------
                         \_________________/
                                 x7
    Despues sigue con un:
    
    A5 - Bb5 - A5sBb5 - Bb5
    
    
    Guitarra 2:
          Dm        Bb
    e|--------------666-\
    B|--------------666-| x8
    G|--------------888-|
    D|--------------888-|
    
  • Intro 		00:10
    G|--------------------7-7-7-7-7-7-7-|
    D|----------------------------------|
    A|----------------------------------| 
    E|----------------------------------|
    
    G|----------------------------------|
    D|----------------------------------|  x4
    A|5-5-5-5-5-5-5-5--5-5s1-1----------|
    E|----------------------------------|
    					00:23
    G|---------------------------------------------------|
    D|---------------------------------------------------|
    A|-0-0-0-0-0-0-0-0-0-0-0-0--1-1-1-1-1-1--0h1-0h1-0h1-|
    E|---------------------------------------------------|
    
    G|---------------------------------------------------|
    D|---------------------------------------------------|
    A|-0-0-0-0-0-0-0-0-0-0-0-0--1-1-1-1-1-1-1-1-1-1-1-1s5|
    E|---------------------------------------------------|
    
    no se bien del menu pero la salsa abunda..  00:36
    G|----------------------------------|
    D|----------------------------------|  x4
    A|5-5-5-5-5-5-5-5--5-5s1-1----------|
    E|--------------------------
  • +
    ¡Colabora con nosotros!
    Envíanos tu versión de esta canción
  • Tutorial
    HD
    Como Tocar El Solo - Yo Canibal - Patricio Rey Y Sus Redonditos de Ricota (Los Redondos)
    6:22
  • Tutorial
    HD
    Como Tocar Yo Canibal - Patricio Rey Y Sus Redonditos de Ricota (Los Redondos)
    - Tutorial
    12:00
  • Tutorial
    HD
    Explicado - Como tocar "Yo canibal" de Los Redondos en el bajo tutorial#83
    7:05

Letra de Yo caníbal
No se entiende un menú pero la salsa abunda.
Soy un gourmet que huele eternamente mal.
Viejas compotas que no dan respiro
Al caníbal que hay en mí,
Que no es bien recibido en un banquete así.
Se amasan las fortunas, se cargan los bolsillos.
De presa seca, de oro falso, de vermouth
Me acaban el cerebro a mordiscos
Bebiendo el jugo de mi corazón
Y me cuentan cuentos al ir a dormir. Ooh...
Un cordero de mi estilo.
Un caníbal de mi estilo
Voy al coliseo a prenderme fuego.
Mi racha de novato nunca cambiará.
Por favor que el adiós no se alargue.
Me cansé de tanto esperar.
Cuando el fuego crezca quiero estar allí.
Un cordero de mi estilo.
Un caníbal de mi estilo.
Un cordero de mi estilo.
Un caníbal de mi estilo. uoo Oooh




[Yo caníbal chords][Yo caníbal cifra]
© LaCuerda.net · aviso legal · privacidad · es · en · pt · contacto