Acordes de Guitarra » P »Patricio Rey y sus Redonditos de Ricota » Una Piba Con La Remera De Greenpeace (Tab)

Una Piba Con La Remera De Greenpeace
Patricio Rey y sus Redonditos de Ricota

Letras, Acordes y Tabs para Guitarra, Bajo y Ukulele

  •            B5       D5       G5
    e]------------------------------------0-----------]
    B]------------------------------------------------]
    G]-------------4--------7-------------------------]
    D]---0-------4---4----7---7-----12----------0-----]
    A]-2---2---2--------5--------10----10-----2---2---]
    E]------------------------------------------------]                                                                              
    
                Está dormida o finge que duerme,
                llega una mosca y se posa en su boca.
                Y sin embargo mi mundo termina en ella. 
    
    2) Puente
    
        D                      Am
    e]--2-------------------------]
    B]--3-------------------------]
    G]--2-------0-2----------------]
    D]--0-----4-----0----2--------]
    A]---------------------3-2-0--]
    
  • e|------------------------------------------|
    B|-----------------------------------5------|
    G|-------------4--------7------7------------| x4
    D|----0------4---4----7---7--5----5---------|
    A|--1---1-2---------5-----------------------|
    E|------------------------------------------|
    
    Verso 1:
    
    SIm      RE      SOL
    Está dormida o finje que duerme...
    SIm        RE        SOL
    llega una mosca y se posa en su boca
    SIm     RE      SOL
    Y sin embargo mi mundo
              SIm   RE  SOL RE
    termina en ella.
    
    LAm      MIm       DO
    Ya se cansó de dormir
    
  • -------------------------------------------------------
    Legenda
    
    <>= Armonicos                 / = Arrastres
    ~ = Vibratos                  p = Lidago descendente o Pull off 
    __3__ = Trecillos             h = Lidado ascendente o Hammer on
    ^ = Estiradas o Bends         r = Soltar la estirada
    x = Silencio de cuerda        s = Mover la pua rapido y continuo
                                  t = tapping
    ---------------------------------------------------------------------------------------------
    
    *La cancion es en Si mayor
    
    Riff 1:
       Bb/D    B5     D5      G5 
    E:-------------------------------------
    B:-------------------------------------
    G:----------4-------7-------12--9------
    D:---0-----4-------7------12-----------
    A:-1--1---2----2--5---5/10-------------
    
  • e]-------------------------------------0-----------]
    B]-------------------------------------------------]
    G]-------------4----------7------------------------]
    D]---0-------4---4------7---7--------5-------------]
    A]-1---1---2-------2--5------------5---------------]
    E]-------------------------------3-----------------] 
    
                
    2) Puente
    
        
    e]-3-3-2-2------------------------]
    B]-3-3-3-3------------------------]
    G]-2-2-2-2------0-2---------------]
    D]-0-0-0-0----4-----0----2--------]
    A]-------------------------3-2-0--]
    E]--------------------------------]
    
       Riff 2:
    e]----------------------------]  esto sigue despues del puente,
    
  •     SIb     SI         RE         SOL 
    e|-----------------------------------------(0)--|
    B|----------------------------------------------|
    G|-----------4-------------7------------12------|X4
    D|--0------4-------------7------------12--------|
    A|1---1-/-2------2-/---5------5-/--10-----------|
    E|----------------------------------------------|
    
    BAJO:
    G|----------------------------------------------|
    D|----------------------------------------------|
    A|-------(2)----------(5)-----------------------|X4
    E|--------------------------------(3)-(3)-------|
    
    
    VERSO 1:
    GUITARRA:
        SIb     SI         RE         SOL 
    e|-----------------------------------------(0)--|
    B|----------------------------------------------|
    
  • Aca arreglo un poco la tablatura que ya estaba...
    
    Intro:
    G|-------------------|x4
    D|-------------------|
    A|-2-5---------------|
    E|-----3-3-----------|
    
     Versos
    G|-------------------|x4
    D|-------------------|
    A|-2-5---------------|
    E|-----3-3-----------|
    
     Puente:
    G|--------------------|x2 G|-----------|
    D|--------------------|   D|-----------|
    A|-5--2-3-5-------3---|   A|-5--2-3-5--|
    E|------------5-0---3-|   E|-----------|
    
    
     Versos
    G|-------------------|x4
    D|-------------------|
    A|-2-5---------------|
    E|-----3-3-----------|
    
     Coro:
    G|-----------------------------------|x2
    D|-----------------------------------|
    A|-2222-55------11-2222-55-----------|
    E|---------3333------------3333-22---|
    
     |-----|x16 |-----|x16
     |-----|    |-----|
     |-----|    |-----|
     |--0--|    |--5--|
    
     Versos
    G|-------------------|x4
    D|-------------------|
    A|-2-5---------------|
    E|-----3-3-----------|
    
     Puente:
    G|--------------------|x2 G|-----------|
    D|--------------------|   D|-----------|
    A|-5--2-3-5-------3---
  • +
    ¡Colabora con nosotros!
    Envíanos tu versión de esta canción

Letra de Una Piba Con La Remera De Greenpeace
Está dormida o finge que duerme,
llega una mosca y se posa en su boca.
Y sin embargo mi mundo termina en ella.
2) Puente
Ya se cansó de dormir todo el tiempo en sillones
Y de taparse la boca para no gritar.
1)
Nunca supo buscarse la vida.
Su cuna fueron restos de un Mehari
Cuando se enoja chisporrotea infumable.
3) Estribillo
Se aparta corriendo de
mamones zoquetes y fiolos pipiolos.
Y por las dudas nunca está
cerca de las vías sin mirar atrás,
mirar atrás!
1)
Boca sucia, pequeña hechicera.
Una pendeja que hace de vieja.
Tratando de que pique algun pavo ingenuo.
2)
El jean le apreta la fresa y ella es la reina.
En paredones que escracha culeando su estrella.
1)
Sueña con algún pajarraco.
que le de un pie y sople su amor.
Y la alegría por la que su mundo gira...
3)
Se aparta corriendo de
mamones zoquetes y fiolos pipiolos.
Usa su lengua como un sable,
mientras se ríe y nos apura.
Y por las dudas nunca está cerca de las vías,
sin mirar atrás, mirar atrás!
[Estribillo sin letra y fin]
Acordes:
¯¯¯¯¯¯¯
[Versos]
[Estribillo]
Puede que en el último acorde del estribillo Skay alterne
entre A#5 y F#5. Pero probablemente sólo sea F#5.
Aguanten los Redondos!
Angel
[Mza-Arg]




[Una Piba Con La Remera De Greenpeace chords][Una Piba Con La Remera De Greenpeace cifra]
© LaCuerda.net · aviso legal · privacidad · es · en · pt · contacto