Acordes de Guitarra » P »Patricio Rey y sus Redonditos de Ricota » Un tal Bridgitte Bardot (Tab)
  • Letra y Acordes
    A
    Viejo Caryl Chessman
    
    Viejo Caryl Chessman
    
    respira otra vez.
    D
    Ya llegó la hora
    
    lubrica tus branquias
    A
    respira otra vez.
    E
    Viejo Caryl Chessman
    (D)
    gritaba enfurecido
                       A
    Un tal Brigitte Bardot.
    
    A
    
  • Tablatura
    e|-----------------------||
    B|---5-----5------5-5-5--||
    G|---7--#--7--#---7-7-7--||
    D|---6-----6------6-6-6--||
    A|---7-----7-------------||
    E|-----------------------||
    
    BAJO:
    G|-----------------------||
    D|-----------------------||
    A|---7-----7------7-7-7--||
    E|-----------------------||
    
    
    
    VERSO 1:
    
    GUITARRA: LA (fraseo)        LA                  LA                                  LA*    MI7
    e|---|-----------------|--------------------|---------------------|---|---|---|---|-----|-------|
    B|---|-----------------|--------------------|---------------------|---|---|---|---|-----|-88--88|
    
  • Tablatura
    E|-----------------------||
    B|---5-----5------5-5-5--||
    G|---7-----7------7-7-7--||
    D|---6-----6------6-6-6--||
    A|---7-----7-------------||
    E|-----------------------||
    LA
    Viejo Caryl Chessman
    Viejo Caryl Chessman
    respira otra vez.
    RE7
    Ya llegó la hora
    lubrica tus branquias
    LA
    respira otra vez.
    MI7
    Viejo Caryl Chessman
    RE7
    gritaba enfurecido
                      LA*(SIlencio)    MI7
    
  • Tab p/Bajo
    INTRO:(LA-RE-LA-MI-RE-LA) el ajo entra en RE
    G|------------------|
    D|------44--77--44--|
    A|--55--------------|x2
    E|------------------|
    
    G|------------------|
    D|------------------|
    A|------44--77--44--|x2
    E|--55--------------|
    
    G|--------------------------------------------------------|
    D|------66--99--66------44--77--11------------------------|
    A|--77--------------55------------------4--5--6--7--5-6-7-|
    E|----------------------------------55--------------------|
    
    Viejo Caryl Chessman
    
    Viejo Caryl Chessman
    
    respira otra vez.
    G|------------------|
    D|------------------|
    A|------44--77--44--|x4
    E|--55--------------|
    
    Ya llegó la hora
    
    lubrica tus branquias
    G|------------------|
    D|------44--77--44--|
    A|--55--------------|x2
    E|------------------|
    
    respira otra vez.
    G|------------------|
    D|------------------|
    A|------44--77--44--|x2
    E|--55--------------|
    
    Viejo Caryl Chessman
    G|------------------|
    D|------66--99--66--|
    A|--77--------------|
    E|------------------|
    
    gritaba enfurecido
    G|-------
  • +
    ¡Colabora con nosotros!
    Envíanos tu versión de esta canción

Letra de Un tal Bridgitte Bardot
Viejo Caryl Chessman
Viejo Caryl Chessman
respira otra vez.
Ya llegó la hora
lubrica tus branquias
respira otra vez.
Viejo Caryl Chessman
gritaba enfurecido
Un tal Brigitte Bardot.
Si matas doce pájaros de dos tiros,
si matas doce pájaros de dos tiros,
no es demasiado si son dos tiros,
si matas doce pajaros de dos tiros.
"No es demasiado tarde!"
gritaba enfurecido
un tal Brigitte Bardot.
Mano para hombres, mano para hombres
ayer se le dio,
mano para hombres muy dura y pesada
ayer se le dio.
"Mano para hombres",
gritaba enfurecido
un tal Brigitte Bardot.
(Tocar tipo base de Blues rapido)



© LaCuerda.net · aviso legal · privacidad · contacto