Acordes de Guitarra » P »Patricio Rey y sus Redonditos de Ricota » Rock Yugular (Tab)

Rock Yugular
Patricio Rey y sus Redonditos de Ricota

Letras, Acordes y Tabs para Guitarra, Bajo y Ukulele

  • e----------/-----------/----------------/-----------/
    b----------/-----------/----------------/-----------/
    g----------/---------9-/-------------12-/---------7-/
    d------9-8-/-----9-8---/-------12-11----/-----9-8---/
    a----7-----/---7-------/-10-10----------/---7-------/
    E--0-------/-0---------/----------------/-0---------/
     2 veses   / 4 veses   / 4 veses        / 4 veses   /
    
    e----------------------------10----------------------/
    b---------------8-10~11~10-8----8--------------------/
    g-------------9---------------------------7---------7/
    d--7--7-7-7----------------------------9-8------9-8--/
    a--7--7-7-7--------------------------7--------7------/ 
    E--5--5-5-5------------------------0--------0--------/
    Todo esto se repite dos veses
    
    
    e--------------/
    b--------------/
    g--------------/
    
  •     MI              MI        |  MI        | |  SOL          | |  MI         |
    e|-------------|-------------|---------0----|-----------------|---------0-----||
    B|-------------|-------------|----------(0)-|-----------------|-----------(0)-||
    G|-----9-------|-----9-------|-----9--------|-----12----12----|-----9---------||
    D|---9---(8)~~-|---9---(8)~~-|---9---8------|---12--11----(12)|---9---8-------||
    A|-7-----------|-7-----------|-7------------|-10--------------|-7-------------||
    E|-------------|-------------|--------------|-----------------|---------------||
                                                  ______X4______     ______X4____
    BAJO:                         _X3_   MI x1   |  SOL         |   |   MI       | 
    G|-------------|-------------|----|---------|-----------------|----------------||
    D|-------------|-------------|----|---------|-----------------|----------------||
    A|-------------|-----------7/|----|---------|-----------------|----------------||
    E|-------------|-------------|-(0)|-00000000|3-3-3-3-3-3-3-3-3|-0-0-0-0-3p1----||
    
    
    sigue asi....                      ______X2___
         LA             1/2           | MI        |   LA*          1/2           MI       MI  SOL FA
    e|------(5)----------------------|-------0-----|-----(5)--------------10--|----0---|------------|
    B|------(5)---8-10-10br-8-10-(8)-|---------(0)-|-----(5)--8-10-10br-8----8|-----(0)|------------|
    G|-----------9-------------------|---9---------|---------9----------------|--9-----|--9---------|
    
  • Intro
    G|-----|-----|------------|------|--------------------|-----|
    D|-----|-----|------------|------|--------------------|-----|
    A|-(7)-|-(7)-|------------|-(7)--|------------(7)-(7)-|-----|
    E|-----|-----|-33-33-33-3-|------|-5555-5555----------|-3-1-|
    	     |  4  Veces  |4veces|     2  Veces       |
    Verso
    G|--------------|x4
    D|--------------|
    A|--------------|
    E|-0-3-1--0-3-1-|
    
    Coro
    G|--------------------------------|x2 |-----|
    D|--------------------------------|   |-----|
    A|-55-355-355-355--77-577-577-577-|   |-----|
    E|--------------------------------|   |-3-1-|
    
    Verso
    G|--------------|x4
    D|--------------|
    A|--------------|
    E|-0-3-1--0-3-1-|
    
    Coro
    G|--------------------------------|x2 |-----|
    D|--------------------------------|   |-----|
    A|-55-355-355-355--77-577-577-577-|   |-----|
    E|--------------------------------|   |-3-1-|
    
    Puente
    G|------------|-----9-7-9-8-7------|--------------------|
    D|------------|--------------------|--------------------|
    
  • +
    ¡Colabora con nosotros!
    Envíanos tu versión de esta canción
  • Tutorial
    HD
    Explicado - Como tocar "Rock yugular" de Los Redondos en el bajo tutorial#192
    13:24

Letra de Rock Yugular
2 veses / 4 veses / 4 veses / 4 veses /
Todo esto se repite dos veses
una sola vez
-Dame... dame tu vida.
Dame y tendras mi piedad.
dame la sed de tus ojos acorazados
y dame tu insolencia tambien.
-Rara vez esta vida tiene sentido, amor
y asi ves que hasta mi sombra brilla
en esta ciudad.
-Caen, caen al fin, caen los disfrases
caen desnudandote
mientras unos fantasmas, fieles amigos
rien de vos y se roban tu fe.
-Vas copiando tu herida sobre un paniuelo rojo
y ya sabes que jugando al borrego te van a carnear
Intermedio:
4 veses 4 veses Se repite.........
.......dos veses.
-Risas en el taller del diablo
trampas para tu soniar
no vas a ser esclava del paraiso
vas a bailar en un rock yugular.
-Te vez en el pequenio espejo del mundo hoy
y no queres que la lima del tiempo lo muerda otra vez
-Dame... dame tu vida
dame y tendras mi piedad
dame la sed de tus ojos acorazados
y dame, mi amor, tu insolencia tambien.
-Rara vez esta vida tiene sentido, amor
y asi vez que hasta mi sombra brilla
en esta ciudad.
Repite intermedio y finaliza asi:
4 veses 4 veses
Espero les guste. Cualquier consulta manden un e-mail
AGUANTE CHACA Y EL REY DEL PATY.




[Rock Yugular chords][Rock Yugular cifra]
© LaCuerda.net · aviso legal · privacidad · es · en · pt · contacto