Acordes de Guitarra » P »Patricio Rey y sus Redonditos de Ricota » Pool averna y papusa (Tab)
  • Tablatura
    e--------5-------5--------5--.
    b--------5-------5--------5--.
    g--------5-------5--------5--.
    d---7-7----7-7-7---7-7-7-----.
    a---7-7----7-7-7---7-7-7-----.
    E---5-5----5-5-5---5-5-5-----.
    
    Solo de la introducion:
    
    v: vibrato
    s: estira
    d: desliza
    p: pulsa (en vez de la pua usas el dedo de la zurda)
    
    d--------------------------------
    a--7-7-9-7--7-7-9-7--7-7-9-7-----
    E--------------------------------
    
    d--------------------------------.
    a--7-7-9-7--7-7-9-7--7-7-9-7-----.
    
  • +
    ¡Colabora con nosotros!
    Envíanos tu versión de esta canción

Letra de Pool averna y papusa
v: vibrato
s: estira
d: desliza
p: pulsa (en vez de la pua usas el dedo de la zurda)
Am(se toca como en la introducion)
Su llave arrojo
se fue, asi, sin mas
puteando por lo bajo se marcho
Un killer riff en su contestador
dejo sonando como confesion
Sin bulchitear a nobody, man
una corazonada fue esta vez...
lo puso en la ruta...(bie bie!)
con pases de chabona y lagrimas.
Estribillo:
Con un platino de American Express
trucho, pero un lindo 'camaleon'.
Se despidio del negro Burgundy
pero ensueguida le bajo el pulgar
brindo tambien con el flaco Merlin
y vacaciones dio a su corazon...
No hay quien le quite a ese gallo el espolon!
Que ruede la bola! El 'zumba' se va! (bie bie!).
Bendita sea su vieja pick-up
lo hecho de la cabina y se desvio
lo escupio y desbarranco
y al borde del abismo lo dejo
Fue la claridad que lo enceguecio
Que ruede la bola! El 'zumba' se fue!
Bie-bie!
y se pierde en Am improvisando en la escala
pentatonica de Am
Acordes:
Espero les guste, cualquier cosa manden un e-mail
Aguante Chaca y el Rey del Paty



© LaCuerda.net · aviso legal · privacidad · contacto